  0
SECTION
  2
HEADER
  9
$ACADVER
  1
AC1015
  9
$ACADMAINTVER
 70
    20
  9
$DWGCODEPAGE
  3
ANSI_1252
  9
$INSBASE
 10
0.0000000000078133
 20
0.0
 30
0.0
  9
$EXTMIN
 10
-244.7796535246123
 20
-22.70669907814689
 30
0.0
  9
$EXTMAX
 10
244.7796535290238
 20
379.1861233658313
 30
0.0
  9
$LIMMIN
 10
0.0
 20
0.0
  9
$LIMMAX
 10
420.0
 20
297.0
  9
$ORTHOMODE
 70
     0
  9
$REGENMODE
 70
     1
  9
$FILLMODE
 70
     1
  9
$QTEXTMODE
 70
     0
  9
$MIRRTEXT
 70
     1
  9
$LTSCALE
 40
0.5
  9
$ATTMODE
 70
     1
  9
$TEXTSIZE
 40
30.0
  9
$TRACEWID
 40
1.0
  9
$TEXTSTYLE
  7
Text R+P
  9
$CLAYER
  8
0
  9
$CELTYPE
  6
ByLayer
  9
$CECOLOR
 62
   256
  9
$CELTSCALE
 40
1.0
  9
$DISPSILH
 70
     0
  9
$DIMSCALE
 40
10.0
  9
$DIMASZ
 40
2.5
  9
$DIMEXO
 40
2.0
  9
$DIMDLI
 40
3.75
  9
$DIMRND
 40
0.0
  9
$DIMDLE
 40
0.0
  9
$DIMEXE
 40
1.25
  9
$DIMTP
 40
0.0
  9
$DIMTM
 40
0.0
  9
$DIMTXT
 40
2.5
  9
$DIMCEN
 40
2.5
  9
$DIMTSZ
 40
0.0
  9
$DIMTOL
 70
     0
  9
$DIMLIM
 70
     0
  9
$DIMTIH
 70
     0
  9
$DIMTOH
 70
     0
  9
$DIMSE1
 70
     0
  9
$DIMSE2
 70
     0
  9
$DIMTAD
 70
     1
  9
$DIMZIN
 70
     8
  9
$DIMBLK
  1
Oblique
  9
$DIMASO
 70
     1
  9
$DIMSHO
 70
     1
  9
$DIMPOST
  1

  9
$DIMAPOST
  1

  9
$DIMALT
 70
     0
  9
$DIMALTD
 70
     3
  9
$DIMALTF
 40
0.03937007874016
  9
$DIMLFAC
 40
1.0
  9
$DIMTOFL
 70
     1
  9
$DIMTVP
 40
0.0
  9
$DIMTIX
 70
     0
  9
$DIMSOXD
 70
     0
  9
$DIMSAH
 70
     0
  9
$DIMBLK1
  1

  9
$DIMBLK2
  1

  9
$DIMSTYLE
  2
Vorlage Sandro
  9
$DIMCLRD
 70
     0
  9
$DIMCLRE
 70
     0
  9
$DIMCLRT
 70
     0
  9
$DIMTFAC
 40
1.0
  9
$DIMGAP
 40
0.625
  9
$DIMJUST
 70
     0
  9
$DIMSD1
 70
     0
  9
$DIMSD2
 70
     0
  9
$DIMTOLJ
 70
     0
  9
$DIMTZIN
 70
     8
  9
$DIMALTZ
 70
     0
  9
$DIMALTTZ
 70
     0
  9
$DIMUPT
 70
     1
  9
$DIMDEC
 70
     0
  9
$DIMTDEC
 70
     0
  9
$DIMALTU
 70
     2
  9
$DIMALTTD
 70
     3
  9
$DIMTXSTY
  7
Standard
  9
$DIMAUNIT
 70
     0
  9
$DIMADEC
 70
     1
  9
$DIMALTRND
 40
0.0
  9
$DIMAZIN
 70
     0
  9
$DIMDSEP
 70
    44
  9
$DIMATFIT
 70
     3
  9
$DIMFRAC
 70
     0
  9
$DIMLDRBLK
  1

  9
$DIMLUNIT
 70
     2
  9
$DIMLWD
 70
    -2
  9
$DIMLWE
 70
    -2
  9
$DIMTMOVE
 70
     0
  9
$LUNITS
 70
     2
  9
$LUPREC
 70
     4
  9
$SKETCHINC
 40
1.0
  9
$FILLETRAD
 40
0.0
  9
$AUNITS
 70
     0
  9
$AUPREC
 70
     0
  9
$MENU
  1
.
  9
$ELEVATION
 40
0.0
  9
$PELEVATION
 40
0.0
  9
$THICKNESS
 40
0.0
  9
$LIMCHECK
 70
     0
  9
$CHAMFERA
 40
10.0
  9
$CHAMFERB
 40
10.0
  9
$CHAMFERC
 40
20.0
  9
$CHAMFERD
 40
0.0
  9
$SKPOLY
 70
     0
  9
$TDCREATE
 40
2453903.616158727
  9
$TDUCREATE
 40
2453903.574492060
  9
$TDUPDATE
 40
2455898.555872477
  9
$TDUUPDATE
 40
2455898.514205810
  9
$TDINDWG
 40
0.0238100000
  9
$TDUSRTIMER
 40
0.0238100000
  9
$USRTIMER
 70
     1
  9
$ANGBASE
 50
0.0
  9
$ANGDIR
 70
     0
  9
$PDMODE
 70
     0
  9
$PDSIZE
 40
0.0
  9
$PLINEWID
 40
0.0
  9
$SPLFRAME
 70
     0
  9
$SPLINETYPE
 70
     6
  9
$SPLINESEGS
 70
     8
  9
$HANDSEED
  5
115
  9
$SURFTAB1
 70
     6
  9
$SURFTAB2
 70
     6
  9
$SURFTYPE
 70
     6
  9
$SURFU
 70
     6
  9
$SURFV
 70
     6
  9
$UCSBASE
  2

  9
$UCSNAME
  2

  9
$UCSORG
 10
0.0
 20
0.0
 30
0.0
  9
$UCSXDIR
 10
1.0
 20
0.0
 30
0.0
  9
$UCSYDIR
 10
0.0
 20
1.0
 30
0.0
  9
$UCSORTHOREF
  2

  9
$UCSORTHOVIEW
 70
     0
  9
$UCSORGTOP
 10
0.0
 20
0.0
 30
0.0
  9
$UCSORGBOTTOM
 10
0.0
 20
0.0
 30
0.0
  9
$UCSORGLEFT
 10
0.0
 20
0.0
 30
0.0
  9
$UCSORGRIGHT
 10
0.0
 20
0.0
 30
0.0
  9
$UCSORGFRONT
 10
0.0
 20
0.0
 30
0.0
  9
$UCSORGBACK
 10
0.0
 20
0.0
 30
0.0
  9
$PUCSBASE
  2

  9
$PUCSNAME
  2

  9
$PUCSORG
 10
0.0
 20
0.0
 30
0.0
  9
$PUCSXDIR
 10
1.0
 20
0.0
 30
0.0
  9
$PUCSYDIR
 10
0.0
 20
1.0
 30
0.0
  9
$PUCSORTHOREF
  2

  9
$PUCSORTHOVIEW
 70
     0
  9
$PUCSORGTOP
 10
0.0
 20
0.0
 30
0.0
  9
$PUCSORGBOTTOM
 10
0.0
 20
0.0
 30
0.0
  9
$PUCSORGLEFT
 10
0.0
 20
0.0
 30
0.0
  9
$PUCSORGRIGHT
 10
0.0
 20
0.0
 30
0.0
  9
$PUCSORGFRONT
 10
0.0
 20
0.0
 30
0.0
  9
$PUCSORGBACK
 10
0.0
 20
0.0
 30
0.0
  9
$USERI1
 70
     0
  9
$USERI2
 70
     0
  9
$USERI3
 70
     0
  9
$USERI4
 70
     0
  9
$USERI5
 70
     0
  9
$USERR1
 40
0.0
  9
$USERR2
 40
0.0
  9
$USERR3
 40
0.0
  9
$USERR4
 40
0.0
  9
$USERR5
 40
0.0
  9
$WORLDVIEW
 70
     1
  9
$SHADEDGE
 70
     3
  9
$SHADEDIF
 70
    70
  9
$TILEMODE
 70
     0
  9
$MAXACTVP
 70
    64
  9
$PINSBASE
 10
0.0
 20
0.0
 30
0.0
  9
$PLIMCHECK
 70
     0
  9
$PEXTMIN
 10
0.0
 20
0.0
 30
0.0
  9
$PEXTMAX
 10
203.5386536121368
 20
290.7030212879181
 30
0.0
  9
$PLIMMIN
 10
-3.174999952316284
 20
-3.174999952316284
  9
$PLIMMAX
 10
206.7136566638946
 20
293.8780090808868
  9
$UNITMODE
 70
     0
  9
$VISRETAIN
 70
     1
  9
$PLINEGEN
 70
     0
  9
$PSLTSCALE
 70
     1
  9
$TREEDEPTH
 70
  3020
  9
$CMLSTYLE
  2
Standard
  9
$CMLJUST
 70
     0
  9
$CMLSCALE
 40
20.0
  9
$PROXYGRAPHICS
 70
     1
  9
$MEASUREMENT
 70
     1
  9
$CELWEIGHT
370
    -1
  9
$ENDCAPS
280
     0
  9
$JOINSTYLE
280
     0
  9
$LWDISPLAY
290
     0
  9
$INSUNITS
 70
     4
  9
$HYPERLINKBASE
  1

  9
$STYLESHEET
  1

  9
$XEDIT
290
     1
  9
$CEPSNTYPE
380
     0
  9
$PSTYLEMODE
290
     1
  9
$FINGERPRINTGUID
  2
{389852EF-6D13-11D4-9327-00902712374F}
  9
$VERSIONGUID
  2
{1CC8FF7C-78B8-4FFD-88C7-C37D99813BFA}
  9
$EXTNAMES
290
     1
  9
$PSVPSCALE
 40
0.0
  9
$OLESTARTUP
290
     0
  0
ENDSEC
  0
SECTION
  2
CLASSES
  0
CLASS
  1
ACDBDICTIONARYWDFLT
  2
AcDbDictionaryWithDefault
  3
ObjectDBX Classes
 90
        0
280
     0
281
     0
  0
CLASS
  1
ACDBPLACEHOLDER
  2
AcDbPlaceHolder
  3
ObjectDBX Classes
 90
        0
280
     0
281
     0
  0
CLASS
  1
LAYOUT
  2
AcDbLayout
  3
ObjectDBX Classes
 90
        0
280
     0
281
     0
  0
CLASS
  1
DICTIONARYVAR
  2
AcDbDictionaryVar
  3
ObjectDBX Classes
 90
        0
280
     0
281
     0
  0
ENDSEC
  0
SECTION
  2
TABLES
  0
TABLE
  2
VPORT
  5
1A
330
0
100
AcDbSymbolTable
 70
     2
  0
VPORT
  5
A0
330
1A
100
AcDbSymbolTableRecord
100
AcDbViewportTableRecord
  2
*Active
 70
     0
 10
0.0
 20
0.0
 11
1.0
 21
1.0
 12
647.9917803612165
 22
-54.99557653862052
 13
0.0
 23
0.0
 14
10.0
 24
10.0
 15
10.0
 25
10.0
 16
0.0
 26
0.0
 36
1.0
 17
0.0
 27
0.0
 37
0.0
 40
1278.702180460499
 41
1.932762836185819
 42
50.0
 43
0.0
 44
0.0
 50
0.0
 51
0.0
 71
     0
 72
   100
 73
     1
 74
     3
 75
     0
 76
     0
 77
     0
 78
     0
281
     0
 65
     1
110
0.0
120
0.0
130
0.0
111
1.0
121
0.0
131
0.0
112
0.0
122
1.0
132
0.0
 79
     0
146
0.0
  0
ENDTAB
  0
TABLE
  2
LTYPE
  5
15
330
0
100
AcDbSymbolTable
 70
    17
  0
LTYPE
  5
16
330
15
100
AcDbSymbolTableRecord
100
AcDbLinetypeTableRecord
  2
ByBlock
 70
     0
  3

 72
    65
 73
     0
 40
0.0
  0
LTYPE
  5
17
330
15
100
AcDbSymbolTableRecord
100
AcDbLinetypeTableRecord
  2
ByLayer
 70
     0
  3

 72
    65
 73
     0
 40
0.0
  0
LTYPE
  5
8
330
15
100
AcDbSymbolTableRecord
100
AcDbLinetypeTableRecord
  2
Continuous
 70
     0
  3
Solid line
 72
    65
 73
     0
 40
0.0
  0
LTYPE
  5
61
330
15
100
AcDbSymbolTableRecord
100
AcDbLinetypeTableRecord
  2
ACAD_ISO02W100
 70
     0
  3
ISO Strichlinie __ __ __ __ __ __ __ __ __ __ _
 72
    65
 73
     2
 40
15.0
 49
12.0
 74
     0
 49
-3.0
 74
     0
  0
LTYPE
  5
37
330
15
100
AcDbSymbolTableRecord
100
AcDbLinetypeTableRecord
  2
ACAD_ISO10W100
 70
     0
  3
ISO Strichpunktlinie __ . __ . __ . __ . __ . _
 72
    65
 73
     4
 40
18.0
 49
12.0
 74
     0
 49
-3.0
 74
     0
 49
0.0
 74
     0
 49
-3.0
 74
     0
  0
LTYPE
  5
2E
330
15
100
AcDbSymbolTableRecord
100
AcDbLinetypeTableRecord
  2
ACAD_ISO03W100
 70
     0
  3
ISO Gestrichelt mit Abstand __    __    __    _
 72
    65
 73
     2
 40
30.0
 49
12.0
 74
     0
 49
-18.0
 74
     0
  0
LTYPE
  5
AA
330
15
100
AcDbSymbolTableRecord
100
AcDbLinetypeTableRecord
  2
amconstr
 70
     0
  3
_______________________
 72
    65
 73
     2
 40
9999.0
 49
9999.0
 74
     0
 49
0.0
 74
     0
  0
LTYPE
  5
AB
330
15
100
AcDbSymbolTableRecord
100
AcDbLinetypeTableRecord
  2
amzigzag
 70
     0
  3
/\/-/\/-/\/-/\/-/\/-/\/
 72
    65
 73
     2
 40
11.0001
 49
0.0001
 74
     4
 75
   135
340
BB
 46
0.04
 50
0.0
 44
0.0
 45
0.0
 49
-11.0
 74
     0
  0
LTYPE
  5
AC
330
15
100
AcDbSymbolTableRecord
100
AcDbLinetypeTableRecord
  2
AM_DIN_F_W050
 70
     0
  3
__ __ __ __ __ __ __ __ __ __ __ __ __ __ __
 72
    65
 73
     2
 40
6.25
 49
4.75
 74
     0
 49
-1.5
 74
     0
  0
LTYPE
  5
AD
330
15
100
AcDbSymbolTableRecord
100
AcDbLinetypeTableRecord
  2
AM_DIN_G_W050
 70
     0
  3
____ . ____ . ____ . ____ . ____ . ____ . ____
 72
    65
 73
     4
 40
13.75
 49
9.75
 74
     0
 49
-1.5
 74
     0
 49
1.0
 74
     0
 49
-1.5
 74
     0
  0
LTYPE
  5
AE
330
15
100
AcDbSymbolTableRecord
100
AcDbLinetypeTableRecord
  2
AM_DIN_K_W050
 70
     0
  3
_____ . . _____ . . _____ . . ____ .. ____
 72
    65
 73
     6
 40
16.25
 49
9.75
 74
     0
 49
-1.5
 74
     0
 49
1.0
 74
     0
 49
-1.5
 74
     0
 49
1.0
 74
     0
 49
-1.5
 74
     0
  0
LTYPE
  5
AF
330
15
100
AcDbSymbolTableRecord
100
AcDbLinetypeTableRecord
  2
AM_DIN_F_W050x2
 70
     0
  3
 _ _ _ _ _ _ _ _ _ _ _ _
 72
    65
 73
     2
 40
3.125
 49
2.25
 74
     0
 49
-0.875
 74
     0
  0
LTYPE
  5
B0
330
15
100
AcDbSymbolTableRecord
100
AcDbLinetypeTableRecord
  2
AM_DIN_G_W050x2
 70
     0
  3
__ . __ . __ . __ . __ . __
 72
    65
 73
     4
 40
6.875
 49
4.75
 74
     0
 49
-0.875
 74
     0
 49
0.375
 74
     0
 49
-0.875
 74
     0
  0
LTYPE
  5
B1
330
15
100
AcDbSymbolTableRecord
100
AcDbLinetypeTableRecord
  2
ACISOWELD
 70
     0
  3
_ _ _ _ _
 72
    65
 73
     2
 40
2.0
 49
2.0
 74
     0
 49
-1.0
 74
     0
  0
LTYPE
  5
B2
330
15
100
AcDbSymbolTableRecord
100
AcDbLinetypeTableRecord
  2
ACISOTGB
 70
     0
  3
__ . . __ . .
 72
    65
 73
     6
 40
9.0
 49
4.0
 74
     0
 49
-1.0
 74
     0
 49
1.0
 74
     0
 49
-1.0
 74
     0
 49
1.0
 74
     0
 49
-1.0
 74
     0
  0
LTYPE
  5
B3
330
15
100
AcDbSymbolTableRecord
100
AcDbLinetypeTableRecord
  2
ACISOTGL
 70
     0
  3
_ _ _ _ _
 72
    65
 73
     2
 40
3.0
 49
2.0
 74
     0
 49
-1.0
 74
     0
  0
LTYPE
  5
B4
330
15
100
AcDbSymbolTableRecord
100
AcDbLinetypeTableRecord
  2
CENTER
 70
     0
  3
__ . __
 72
    65
 73
     4
 40
7.0
 49
4.0
 74
     0
 49
-1.0
 74
     0
 49
1.0
 74
     0
 49
-1.0
 74
     0
  0
LTYPE
  5
B5
330
15
100
AcDbSymbolTableRecord
100
AcDbLinetypeTableRecord
  2
HIDDEN
 70
     0
  3
Hidden __ __ __ __ __ __ __ __ __ __ __ __ __ _
 72
    65
 73
     2
 40
9.524999999999998
 49
6.349999999999999
 74
     0
 49
-3.174999999999999
 74
     0
  0
LTYPE
  5
B6
330
15
100
AcDbSymbolTableRecord
100
AcDbLinetypeTableRecord
  2
PHANTOM2
 70
     0
  3
Phantom (.5x) ___ _ _ ___ _ _ ___ _ _ ___ _ _
 72
    65
 73
     6
 40
31.75
 49
15.875
 74
     0
 49
-3.174999999999999
 74
     0
 49
3.174999999999999
 74
     0
 49
-3.174999999999999
 74
     0
 49
3.174999999999999
 74
     0
 49
-3.174999999999999
 74
     0
  0
ENDTAB
  0
TABLE
  2
LAYER
  5
10
330
0
100
AcDbSymbolTable
 70
    12
  0
LAYER
  5
4
330
10
100
AcDbSymbolTableRecord
100
AcDbLayerTableRecord
  2
0
 70
     0
 62
     7
  6
Continuous
370
    -3
390
5
  0
LAYER
  5
2B
330
10
100
AcDbSymbolTableRecord
100
AcDbLayerTableRecord
  2
WST
 70
     0
 62
     5
  6
Continuous
370
    53
390
5
  0
LAYER
  5
60
330
10
100
AcDbSymbolTableRecord
100
AcDbLayerTableRecord
  2
VERDECKT
 70
     0
 62
     4
  6
ACAD_ISO02W100
370
    25
390
5
  0
LAYER
  5
58
330
10
100
AcDbSymbolTableRecord
100
AcDbLayerTableRecord
  2
TEXT
 70
     0
 62
     1
  6
Continuous
370
    -3
390
5
  0
LAYER
  5
36
330
10
100
AcDbSymbolTableRecord
100
AcDbLayerTableRecord
  2
HILFE
 70
     0
 62
     3
  6
ACAD_ISO10W100
370
    -3
390
5
  0
LAYER
  5
30
330
10
100
AcDbSymbolTableRecord
100
AcDbLayerTableRecord
  2
UK_AUSSCHNITT
 70
     0
 62
     3
  6
ACAD_ISO03W100
290
     0
370
    -3
390
5
  0
LAYER
  5
27
330
10
100
AcDbSymbolTableRecord
100
AcDbLayerTableRecord
  2
CORIAN_AUSSCHNITT
 70
     0
 62
     1
  6
Continuous
290
     0
370
    -3
390
5
  0
LAYER
  5
2D
330
10
100
AcDbSymbolTableRecord
100
AcDbLayerTableRecord
  2
FALZ_LAVANTO
 70
     0
 62
     6
  6
ACAD_ISO03W100
290
     0
370
    -3
390
5
  0
LAYER
  5
B7
330
10
100
AcDbSymbolTableRecord
100
AcDbLayerTableRecord
  2
AM_0
 70
     0
 62
     7
  6
Continuous
370
    50
390
5
  0
LAYER
  5
B8
330
10
100
AcDbSymbolTableRecord
100
AcDbLayerTableRecord
  2
AM_BOR
 70
     0
 62
     7
  6
Continuous
370
    50
390
5
  0
LAYER
  5
B9
330
10
100
AcDbSymbolTableRecord
100
AcDbLayerTableRecord
  2
RAHMEN
 70
     0
 62
     7
  6
Continuous
370
    -3
390
5
  0
LAYER
  5
BA
330
10
100
AcDbSymbolTableRecord
100
AcDbLayerTableRecord
  2
LOGO
 70
     0
 62
   164
  6
Continuous
370
    -3
390
5
  0
ENDTAB
  0
TABLE
  2
STYLE
  5
11
330
0
100
AcDbSymbolTable
 70
     8
  0
STYLE
  5
12
330
11
100
AcDbSymbolTableRecord
100
AcDbTextStyleTableRecord
  2
Standard
 70
     0
 40
0.0
 41
1.0
 50
0.0
 71
     0
 42
2.5
  3
ARIAL.TTF
  4

1001
ACAD
1000
Arial
1071
       34
  0
STYLE
  5
28
330
11
100
AcDbSymbolTableRecord
100
AcDbTextStyleTableRecord
  2
Text R+P
 70
     0
 40
30.0
 41
1.0
 50
0.0
 71
     0
 42
30.0
  3
ARIAL.TTF
  4

1001
ACAD
1000
Arial
1071
       34
  0
STYLE
  5
BB
330
11
100
AcDbSymbolTableRecord
100
AcDbTextStyleTableRecord
  2

 70
     1
 40
0.0
 41
1.0
 50
0.0
 71
     0
 42
2.5
  3
ltypeshp.shx
  4

  0
STYLE
  5
BC
330
11
100
AcDbSymbolTableRecord
100
AcDbTextStyleTableRecord
  2
ACISOTS
 70
     0
 40
1.0
 41
1.0
 50
0.0
 71
     0
 42
2.5
  3
isocp.shx
  4

  0
STYLE
  5
BD
330
11
100
AcDbSymbolTableRecord
100
AcDbTextStyleTableRecord
  2
ACISOGDT
 70
     0
 40
0.0
 41
1.0
 50
0.0
 71
     0
 42
2.5
  3
amgdt.shx
  4

  0
STYLE
  5
BE
330
11
100
AcDbSymbolTableRecord
100
AcDbTextStyleTableRecord
  2
ROMANS
 70
     0
 40
0.0
 41
0.75
 50
0.0
 71
     0
 42
0.12
  3
romans
  4

  0
STYLE
  5
BF
330
11
100
AcDbSymbolTableRecord
100
AcDbTextStyleTableRecord
  2
ARIAL
 70
     0
 40
17.0
 41
1.0
 50
10.0
 71
     0
 42
17.0
  3
ARIAL.TTF
  4

1001
ACAD
1000
Arial
1071
       34
  0
STYLE
  5
C0
330
11
100
AcDbSymbolTableRecord
100
AcDbTextStyleTableRecord
  2
LOGO
 70
     0
 40
20.0
 41
1.0
 50
10.0
 71
     0
 42
20.0
  3
verdana.TTF
  4

1001
ACAD
1000
Verdana
1071
       34
  0
ENDTAB
  0
TABLE
  2
VIEW
  5
18
330
0
100
AcDbSymbolTable
 70
     0
  0
ENDTAB
  0
TABLE
  2
UCS
  5
19
330
0
100
AcDbSymbolTable
 70
     0
  0
ENDTAB
  0
TABLE
  2
APPID
  5
1C
330
0
100
AcDbSymbolTable
 70
     1
  0
APPID
  5
13
330
1C
100
AcDbSymbolTableRecord
100
AcDbRegAppTableRecord
  2
ACAD
 70
     0
  0
ENDTAB
  0
TABLE
  2
DIMSTYLE
  5
1D
330
0
100
AcDbSymbolTable
 70
    10
100
AcDbDimStyleTable
 71
     1
340
1E
  0
DIMSTYLE
105
1E
330
1D
100
AcDbSymbolTableRecord
100
AcDbDimStyleTableRecord
  2
Vorlage Sandro
 70
     0
 40
10.0
 41
2.5
 42
2.0
 43
3.75
 44
1.25
 73
     0
 74
     0
 77
     1
 78
     8
140
2.5
141
2.5
143
0.03937007874016
147
0.625
171
     3
172
     1
179
     1
271
     0
272
     0
274
     3
278
    44
283
     0
284
     8
288
     1
340
12
342
1F
  0
DIMSTYLE
105
C1
330
1D
100
AcDbSymbolTableRecord
100
AcDbDimStyleTableRecord
  2
ISO-25
 70
     0
 41
2.5
 42
0.625
 43
3.75
 44
1.25
 73
     0
 74
     0
 77
     1
 78
     8
140
2.5
141
2.5
143
0.03937007874016
147
0.625
171
     3
172
     1
271
     2
272
     2
274
     3
278
    44
283
     0
284
     8
340
12
  0
DIMSTYLE
105
C2
330
1D
100
AcDbSymbolTableRecord
100
AcDbDimStyleTableRecord
  2
STANDARD
 70
     0
  4
"
 41
2.5
 42
1.0
 43
10.0
 44
1.0
 47
0.1
 48
0.1
 73
     0
 74
     0
 77
     1
 78
     8
 79
     2
140
3.5
141
0.0
143
0.0393701
146
0.71
147
1.5
172
     1
176
   256
177
   256
178
     2
271
     2
272
     3
274
     4
283
     0
284
     8
340
12
371
    -1
372
    -1
  0
DIMSTYLE
105
C3
330
1D
100
AcDbSymbolTableRecord
100
AcDbDimStyleTableRecord
  2
STANDARD$3
 70
     0
  4
"
 41
2.5
 42
1.0
 43
10.0
 44
1.0
 47
0.1
 48
0.1
 73
     0
 77
     1
 78
     8
 79
     2
140
3.5
141
0.0
143
0.0393701
146
0.71
147
1.5
176
   256
177
   256
178
     2
271
     2
272
     3
274
     4
283
     0
284
     8
288
     1
289
     0
340
12
371
    -1
372
    -1
  0
DIMSTYLE
105
C4
330
1D
100
AcDbSymbolTableRecord
100
AcDbDimStyleTableRecord
  2
STANDARD$4
 70
     0
  4
"
 41
2.5
 42
1.0
 43
10.0
 44
1.0
 47
0.1
 48
0.1
 73
     0
 77
     1
 78
     8
 79
     2
140
3.5
141
0.0
143
0.0393701
146
0.71
147
1.5
176
   256
177
   256
178
     2
271
     2
272
     3
274
     4
283
     0
284
     8
288
     1
289
     0
340
12
371
    -1
372
    -1
  0
DIMSTYLE
105
C5
330
1D
100
AcDbSymbolTableRecord
100
AcDbDimStyleTableRecord
  2
STANDARD$6
 70
     0
  4
"
 41
2.5
 42
1.0
 43
10.0
 44
1.0
 47
0.1
 48
0.1
 73
     0
 74
     0
 78
     8
 79
     2
140
3.5
141
0.0
143
0.0393701
146
0.71
147
1.5
172
     1
176
   256
177
   256
178
     2
271
     2
272
     3
274
     4
283
     0
284
     8
340
12
371
    -1
372
    -1
  0
DIMSTYLE
105
C6
330
1D
100
AcDbSymbolTableRecord
100
AcDbDimStyleTableRecord
  2
STANDARD$7
 70
     0
  4
"
 41
2.5
 42
1.0
 43
10.0
 44
1.0
 47
0.1
 48
0.1
 73
     0
 74
     0
 77
     1
 78
     8
 79
     2
140
5.0
141
0.0
143
0.0393701
146
0.71
147
1.5
172
     1
176
   256
177
   256
178
     2
271
     2
272
     3
274
     4
283
     0
284
     8
340
12
371
    -1
372
    -1
  0
DIMSTYLE
105
C7
330
1D
100
AcDbSymbolTableRecord
100
AcDbDimStyleTableRecord
  2
STANDARD$SF
 70
     0
  4
"
 41
2.5
 42
1.0
 43
10.0
 44
1.0
 47
0.1
 48
0.1
 73
     0
 74
     0
 75
     1
 76
     1
 77
     1
 78
     8
 79
     2
140
3.5
141
0.0
143
0.0393701
146
0.71
147
1.5
172
     1
176
   256
177
   256
178
     2
271
     2
272
     3
274
     4
283
     0
284
     8
340
12
371
    -1
372
    -1
  0
DIMSTYLE
105
C8
330
1D
100
AcDbSymbolTableRecord
100
AcDbDimStyleTableRecord
  2
STANDARD$SH
 70
     0
  4
"
 41
2.5
 42
1.0
 43
10.0
 44
1.0
 47
0.1
 48
0.1
 73
     0
 74
     0
 75
     1
 76
     1
 77
     1
 78
     8
 79
     2
140
3.5
141
0.0
143
0.0393701
144
2.0
146
0.71
147
1.5
172
     1
173
     1
176
   256
177
   256
178
     2
271
     2
272
     3
274
     4
283
     0
284
     8
340
12
343
A6
371
    -1
372
    -1
  0
DIMSTYLE
105
C9
330
1D
100
AcDbSymbolTableRecord
100
AcDbDimStyleTableRecord
  2
BEM1-10
 70
     0
 41
10.0
 42
20.0
 43
5.0
 44
5.0
 73
     0
 77
     3
140
25.0
141
10.0
143
0.03937
147
3.0
173
     1
176
   164
177
   164
178
   164
271
     1
272
     2
340
12
  0
ENDTAB
  0
TABLE
  2
BLOCK_RECORD
  5
1
330
0
100
AcDbSymbolTable
 70
     4
  0
BLOCK_RECORD
  5
2
330
1
100
AcDbSymbolTableRecord
100
AcDbBlockTableRecord
  2
*Model_Space
340
A
  0
BLOCK_RECORD
  5
9B
330
1
100
AcDbSymbolTableRecord
100
AcDbBlockTableRecord
  2
*Paper_Space
340
9C
  0
BLOCK_RECORD
  5
1F
330
1
100
AcDbSymbolTableRecord
100
AcDbBlockTableRecord
  2
_Oblique
340
0
  0
BLOCK_RECORD
  5
A6
330
1
100
AcDbSymbolTableRecord
100
AcDbBlockTableRecord
  2
GENAXEH
340
0
  0
BLOCK_RECORD
  5
CA
102
{ACAD_XDICTIONARY
360
F8
102
}
330
1
100
AcDbSymbolTableRecord
100
AcDbBlockTableRecord
  2
A4_H.dwg
340
0
102
{BLKREFS
331
FB
102
}
1001
ACAD
1000
DesignCenter Data
1002
{
1070
     1
1070
     4
1002
}
  0
ENDTAB
  0
ENDSEC
  0
SECTION
  2
BLOCKS
  0
BLOCK
  5
3
330
2
100
AcDbEntity
  8
0
100
AcDbBlockBegin
  2
*Model_Space
 70
     2
 10
0.0
 20
0.0
 30
0.0
  3
*Model_Space
  1

  0
ENDBLK
  5
9
330
2
100
AcDbEntity
  8
0
100
AcDbBlockEnd
  0
BLOCK
  5
9D
330
9B
100
AcDbEntity
 67
     1
  8
0
100
AcDbBlockBegin
  2
*Paper_Space
 70
     0
 10
0.0
 20
0.0
 30
0.0
  3
*Paper_Space
  1

  0
ENDBLK
  5
9E
330
9B
100
AcDbEntity
 67
     1
  8
0
100
AcDbBlockEnd
  0
BLOCK
  5
21
330
1F
100
AcDbEntity
  8
0
100
AcDbBlockBegin
  2
_Oblique
 70
     0
 10
0.0
 20
0.0
 30
0.0
  3
_Oblique
  1

  0
LINE
  5
20
330
1F
100
AcDbEntity
  8
0
  6
ByBlock
 62
     0
370
    -2
100
AcDbLine
 10
-0.5
 20
-0.5
 30
0.0
 11
0.5
 21
0.5
 31
0.0
  0
ENDBLK
  5
22
330
1F
100
AcDbEntity
  8
0
100
AcDbBlockEnd
  0
BLOCK
  5
A7
330
A6
100
AcDbEntity
  8
0
100
AcDbBlockBegin
  2
GENAXEH
 70
     0
 10
0.0
 20
0.0
 30
0.0
  3
GENAXEH
  1

  0
LINE
  5
A8
330
A6
100
AcDbEntity
  8
AM_0
100
AcDbLine
 10
-1.0
 20
0.0
 30
0.0
 11
1.0
 21
0.0
 31
0.0
  0
ENDBLK
  5
A9
330
A6
100
AcDbEntity
  8
0
100
AcDbBlockEnd
  0
BLOCK
  5
F9
330
CA
100
AcDbEntity
  8
0
100
AcDbBlockBegin
  2
A4_H.dwg
 70
     2
 10
0.0
 20
0.0
 30
0.0
  3
A4_H.dwg
  1

  0
LINE
  5
CB
330
CA
100
AcDbEntity
  8
RAHMEN
100
AcDbLine
 10
5.0
 20
281.0
 30
0.0
 11
5.0
 21
0.0
 31
0.0
  0
LINE
  5
CC
330
CA
100
AcDbEntity
  8
RAHMEN
100
AcDbLine
 10
195.0
 20
0.0
 30
0.0
 11
195.0
 21
281.0
 31
0.0
  0
LINE
  5
CD
330
CA
100
AcDbEntity
  8
AM_BOR
100
AcDbLine
 10
5.0
 20
0.0
 30
0.0
 11
195.0
 21
0.0
 31
0.0
  0
LINE
  5
CE
330
CA
100
AcDbEntity
  8
RAHMEN
100
AcDbLine
 10
5.0
 20
281.0
 30
0.0
 11
195.0
 21
281.0
 31
0.0
  0
LINE
  5
CF
330
CA
100
AcDbEntity
  8
RAHMEN
100
AcDbLine
 10
97.49999999999998
 20
0.0
 30
0.0
 11
195.0
 21
0.0
 31
0.0
  0
ATTDEF
  5
D0
330
CA
100
AcDbEntity
  8
RAHMEN
100
AcDbText
 10
139.9012711605863
 20
6.916792940921226
 30
0.0
 40
1.476068289234091
  1

100
AcDbAttributeDefinition
  3

  2
REVDATE
 70
     8
  0
ATTDEF
  5
D1
330
CA
100
AcDbEntity
  8
RAHMEN
100
AcDbText
 10
167.7292969851413
 20
7.151134982195202
 30
0.0
 40
1.476068289234091
  1

100
AcDbAttributeDefinition
  3

  2
USER
 70
     8
  0
TEXT
  5
D2
330
CA
100
AcDbEntity
  8
RAHMEN
100
AcDbText
 10
139.9702930377142
 20
10.33217238559447
 30
0.0
 40
1.628718135901551
  1
Datum:
100
AcDbText
  0
TEXT
  5
D3
330
CA
100
AcDbEntity
  8
RAHMEN
100
AcDbText
 10
167.5595961854579
 20
10.33217238559447
 30
0.0
 40
1.628718135901551
  1
Zeichner:
100
AcDbText
  0
TEXT
  5
D4
330
CA
100
AcDbEntity
  8
RAHMEN
100
AcDbText
 10
97.9944490486681
 20
10.36596480575008
 30
0.0
 40
1.628718135901551
  1
Datei:
100
AcDbText
  0
ATTDEF
  5
D5
330
CA
100
AcDbEntity
  8
RAHMEN
100
AcDbText
 10
97.92542717154001
 20
7.498682143825192
 30
0.0
 40
1.476068289234091
  1

100
AcDbAttributeDefinition
  3

  2
FNAME
 70
     8
  0
TEXT
  5
D6
330
CA
100
AcDbEntity
  8
RAHMEN
100
AcDbText
 10
98.12785695062766
 20
4.237617658230078
 30
0.0
 40
1.628718135901551
  1
Auftr.Nr.:
100
AcDbText
  0
TEXT
  5
D7
330
CA
100
AcDbEntity
  8
RAHMEN
100
AcDbText
 10
140.1037009396739
 20
4.120446637594966
 30
0.0
 40
1.628718135901551
  1
MSt.:
100
AcDbText
  0
TEXT
  5
D8
330
CA
100
AcDbEntity
  8
RAHMEN
100
AcDbText
 10
167.6934544794731
 20
4.020316848809443
 30
0.0
 40
1.628718135901551
  1
MSt.:
100
AcDbText
  0
LINE
  5
D9
330
CA
100
AcDbEntity
  8
RAHMEN
100
AcDbLine
 10
139.4758439890462
 20
12.31578947368422
 30
0.0
 11
139.4758439890462
 21
6.157894736842138
 31
0.0
  0
ATTDEF
  5
DA
330
CA
100
AcDbEntity
  8
RAHMEN
100
AcDbText
 10
98.11763385388472
 20
1.254680691921578
 30
0.0
 40
1.598969081811834
  1
???
100
AcDbAttributeDefinition
  3
Auftr.Nr.:
  2
TEXT4
 70
     0
  0
ATTDEF
  5
DB
330
CA
100
AcDbEntity
  8
RAHMEN
100
AcDbText
 10
139.9365136052734
 20
0.8237646204792099
 30
0.0
 40
1.598969081811834
  1
1:1
100
AcDbAttributeDefinition
  3
MSt.:
  2
TEXT5
 70
     0
  0
ATTDEF
  5
DC
330
CA
100
AcDbEntity
  8
RAHMEN
100
AcDbText
 10
167.5262671450728
 20
0.5667526156229315
 30
0.0
 40
1.598969081811834
  1
1:10
100
AcDbAttributeDefinition
  3
MSt.:
  2
TEXT6
 70
     0
  0
LINE
  5
DD
330
CA
100
AcDbEntity
  8
RAHMEN
100
AcDbLine
 10
167.1719741754449
 20
6.157894736842138
 30
0.0
 11
167.1719741754449
 21
0.0
 31
0.0
  0
ATTDEF
  5
DE
330
CA
100
AcDbEntity
  8
RAHMEN
100
AcDbText
 10
97.8287739780711
 20
13.29614296459522
 30
0.0
 40
1.598969081811834
  1
???
100
AcDbAttributeDefinition
  3
Ausführung:
  2
TEXT3
 70
     0
  0
ATTDEF
  5
DF
330
CA
100
AcDbEntity
  8
RAHMEN
100
AcDbText
 10
97.8287739780711
 20
19.33519746077308
 30
0.0
 40
1.598969081811834
  1
???
100
AcDbAttributeDefinition
  3
Art der Arbeit:
  2
TEXT2
 70
     0
  0
ATTDEF
  5
E0
330
CA
100
AcDbEntity
  8
RAHMEN
100
AcDbText
 10
97.98573821572844
 20
25.4533906928485
 30
0.0
 40
1.598969081811834
  1
???
100
AcDbAttributeDefinition
  3
Kunde:
  2
TEXT1
 70
     0
  0
LINE
  5
E1
330
CA
100
AcDbEntity
  8
RAHMEN
100
AcDbLine
 10
194.9999999999999
 20
18.47368421052635
 30
0.0
 11
97.3681043618437
 21
18.47368421052635
 31
0.0
  0
LINE
  5
E2
330
CA
100
AcDbEntity
  8
RAHMEN
100
AcDbLine
 10
194.9999999999999
 20
24.63157894736844
 30
0.0
 11
97.3681043618437
 21
24.63157894736844
 31
0.0
  0
LINE
  5
E3
330
CA
100
AcDbEntity
  8
RAHMEN
100
AcDbLine
 10
195.0
 20
30.78947368421052
 30
0.0
 11
97.49999999999998
 21
30.78947368421055
 31
0.0
  0
TEXT
  5
E4
330
CA
100
AcDbEntity
  8
RAHMEN
100
AcDbText
 10
97.99596131247151
 20
16.19995088567321
 30
0.0
 40
1.628718135901551
  1
Ausführung:
100
AcDbText
  0
TEXT
  5
E5
330
CA
100
AcDbEntity
  8
RAHMEN
100
AcDbText
 10
97.83899707481404
 20
22.31813442708156
 30
0.0
 40
1.628718135901551
  1
Art der Arbeit:
100
AcDbText
  0
TEXT
  5
E6
330
CA
100
AcDbEntity
  8
RAHMEN
100
AcDbText
 10
97.99596131247151
 20
28.436327659157
 30
0.0
 40
1.628718135901551
  1
Kunde:
100
AcDbText
  0
LINE
  5
E7
330
CA
100
AcDbEntity
  8
RAHMEN
100
AcDbLine
 10
97.49999999999998
 20
30.78947368421055
 30
0.0
 11
97.49999999999998
 21
0.0
 31
0.0
  0
LINE
  5
E8
330
CA
100
AcDbEntity
  8
RAHMEN
100
AcDbLine
 10
139.4758439890462
 20
6.157894736842138
 30
0.0
 11
97.3681043618437
 21
6.157894736842138
 31
0.0
  0
LINE
  5
E9
330
CA
100
AcDbEntity
  8
RAHMEN
100
AcDbLine
 10
139.4758439890462
 20
6.157894736842138
 30
0.0
 11
139.4758439890462
 21
0.0
 31
0.0
  0
LINE
  5
EA
330
CA
100
AcDbEntity
  8
RAHMEN
100
AcDbLine
 10
195.0
 20
6.157894736842152
 30
0.0
 11
139.3439483508899
 21
6.157894736842138
 31
0.0
  0
LINE
  5
EB
330
CA
100
AcDbEntity
  8
RAHMEN
100
AcDbLine
 10
194.9999999999999
 20
12.31578947368422
 30
0.0
 11
97.49999999999998
 21
12.31578947368422
 31
0.0
  0
LINE
  5
EC
330
CA
100
AcDbEntity
  8
RAHMEN
100
AcDbLine
 10
167.1719741754449
 20
12.31578947368422
 30
0.0
 11
167.1719741754449
 21
6.157894736842138
 31
0.0
  0
LINE
  5
ED
330
CA
100
AcDbEntity
  8
0
100
AcDbLine
 10
195.0
 20
30.78947368421055
 30
0.0
 11
195.0
 21
0.0
 31
0.0
  0
LINE
  5
EE
330
CA
100
AcDbEntity
  8
RAHMEN
100
AcDbLine
 10
5.0
 20
255.9329567986091
 30
0.0
 11
105.4022853194974
 21
255.9329567986091
 31
0.0
  0
MTEXT
  5
EF
330
CA
100
AcDbEntity
  8
RAHMEN
100
AcDbMText
 10
11.15696916645402
 20
279.0230124280853
 30
0.0
 40
2.5
 41
90.70833333333332
 71
     1
 72
     5
  1
{\fFrutiger Linotype|b0|i0|c0|p34;Diese Zeichung ist geistiges Eigentum der kläusler acrylstein ag. Ohne unsere schriftliche Genehmigung darf diese weder kopiert, vervielfältigt, noch Konkurrenzfirmen zugänglich gemacht werden (Art. 12 B.G.)}
 73
     1
 44
1.0
1001
ACAD
1000
MTEXTBEGIN
1070
    73
1070
     1
1070
    44
1040
1.0
1070
    74
1070
     0
1000
MTEXTEND
  0
HATCH
  5
F0
330
CA
100
AcDbEntity
  8
AM_0
 62
   242
100
AcDbHatch
 10
0.0
 20
0.0
 30
0.0
210
0.0
220
0.0
230
1.0
  2
ANSI31
 70
     0
 71
     0
 91
        1
 92
        7
 72
     1
 73
     1
 93
        2
 10
50.75637961129612
 20
4.162977887612726
 42
1.0
 10
51.31564083086257
 20
4.162977887612726
 42
1.0
 97
        0
 75
     0
 76
     1
 52
0.0
 41
0.005
 77
     0
 78
     1
 53
45.0
 43
-90.00147234171434
 44
-11.54408334824683
 45
-0.0112253201513365
 46
0.0112253201513365
 79
     0
 47
0.0144059220544325
 98
        1
 10
51.06211603701334
 20
4.299606703893061
  0
HATCH
  5
F1
330
CA
100
AcDbEntity
  8
AM_0
 62
   242
100
AcDbHatch
 10
0.0
 20
0.0
 30
0.0
210
0.0
220
0.0
230
1.0
  2
ANSI31
 70
     0
 71
     0
 91
        1
 92
        7
 72
     1
 73
     1
 93
        2
 10
52.71243028817415
 20
9.602844358144977
 42
1.0
 10
53.2716915077406
 20
9.602844358144977
 42
1.0
 97
        0
 75
     0
 76
     1
 52
0.0
 41
0.005
 77
     0
 78
     1
 53
45.0
 43
-88.04542166483631
 44
-6.104216877714577
 45
-0.0112253201513365
 46
0.0112253201513365
 79
     0
 47
0.0144059220544325
 98
        1
 10
53.01816671389136
 20
9.739473174425313
  0
HATCH
  5
F2
330
CA
100
AcDbEntity
  8
AM_0
 62
   242
100
AcDbHatch
 10
0.0
 20
0.0
 30
0.0
210
0.0
220
0.0
230
1.0
  2
ANSI31
 70
     0
 71
     1
 91
        1
 92
        7
 72
     1
 73
     1
 93
        2
 10
59.84377326457551
 20
15.54555309803942
 42
1.0
 10
59.28451204500905
 20
15.54555309803942
 42
1.0
 97
        1
330
F3
 75
     0
 76
     1
 52
0.0
 41
0.005
 77
     0
 78
     1
 53
45.0
 43
-81.4733399080014
 44
-0.1615081378201353
 45
-0.0112253201513365
 46
0.0112253201513365
 79
     0
 47
0.0144059220544325
 98
        1
 10
59.59024847072626
 20
15.68218191431975
  0
CIRCLE
  5
F3
102
{ACAD_REACTORS
330
F2
102
}
330
CA
100
AcDbEntity
  8
AM_0
 62
   242
100
AcDbCircle
 10
59.56414265479228
 20
15.54555309803942
 30
0.0
 40
0.2796306097832257
  0
MTEXT
  5
F4
102
{ACAD_XDICTIONARY
360
113
102
}
330
CA
100
AcDbEntity
  8
AM_0
100
AcDbMText
 10
23.60269897498032
 20
28.17564620975296
 30
0.0
 40
5.0
 41
98.12369691971793
 71
     1
 72
     5
  1
{\fFrutiger Linotype|b1|i0|c0|p34;kläusler \C242;acrylstein\C256; ag\fFrutiger Linotype|b0|i0|c0|p34;\P\H0.5x;Bruggacherstrasse 18   8117 Fällanden\PTel 044 825 31 79   Fax 044 825 39 77\Pwww.himacs.ch   info@himacs.ch}
 73
     1
 44
1.0
1001
ACAD
1000
MTEXTBEGIN
1070
    73
1070
     1
1070
    44
1040
1.0
1070
    74
1070
     0
1000
MTEXTEND
  0
LWPOLYLINE
  5
F5
330
CA
100
AcDbEntity
  8
RAHMEN
100
AcDbPolyline
 90
        4
 70
     1
 43
0.0
 10
18.40228531949745
 20
30.78947368421055
 10
97.49999999999998
 20
30.78947368421055
 10
97.49999999999998
 20
0.0000000000000213
 10
18.40228531949745
 20
0.0000000000000213
  0
LINE
  5
F6
330
CA
100
AcDbEntity
  8
RAHMEN
100
AcDbLine
 10
97.49999999999998
 20
30.78947368421055
 30
0.0
 11
97.49999999999998
 21
0.0
 31
0.0
  0
LINE
  5
F7
330
CA
100
AcDbEntity
  8
RAHMEN
100
AcDbLine
 10
105.4022853194974
 20
255.9329567986091
 30
0.0
 11
105.4022853194974
 21
281.0
 31
0.0
  0
ENDBLK
  5
FA
330
CA
100
AcDbEntity
  8
0
100
AcDbBlockEnd
  0
ENDSEC
  0
SECTION
  2
ENTITIES
  0
ARC
  5
2A
330
2
100
AcDbEntity
  8
VERDECKT
100
AcDbCircle
 10
167.2539458664847
 20
296.7978023909989
 30
0.0
 40
62.00000000000015
100
AcDbArc
 50
4.94172950890029
 51
86.44052072367054
  0
ARC
  5
2C
330
2
100
AcDbEntity
  8
FALZ_LAVANTO
100
AcDbCircle
 10
167.2539458664847
 20
296.7978023909989
 30
0.0
 40
63.50000000000015
100
AcDbArc
 50
4.94172950890029
 51
86.44052072367054
  0
ARC
  5
2F
330
2
100
AcDbEntity
  8
UK_AUSSCHNITT
100
AcDbCircle
 10
167.2539458664847
 20
296.7978023909989
 30
0.0
 40
66.50000000000014
100
AcDbArc
 50
4.941978482413637
 51
86.440411830926
  0
LINE
  5
31
330
2
100
AcDbEntity
  8
FALZ_LAVANTO
100
AcDbLine
 10
44.93070451671868
 20
373.0321313630542
 30
0.0
 11
51.65421751671861
 21
365.0126253630542
 31
0.0
  0
LINE
  5
32
330
2
100
AcDbEntity
  8
UK_AUSSCHNITT
100
AcDbLine
 10
46.49163381941534
 20
375.8397986273894
 30
0.0
 11
53.07388691354248
 21
367.9887811337262
 31
0.0
  0
LINE
  5
33
330
2
100
AcDbEntity
  8
UK_AUSSCHNITT
100
AcDbLine
 10
-46.63031482441872
 20
375.8397986218351
 30
0.0
 11
-53.21484522114686
 21
367.9860645038177
 31
0.0
  0
LINE
  5
34
330
2
100
AcDbEntity
  8
FALZ_LAVANTO
100
AcDbLine
 10
-45.06938588794107
 20
373.0321308803941
 30
0.0
 11
-51.79291211573961
 21
365.0126087357498
 31
0.0
  0
ARC
  5
38
330
2
100
AcDbEntity
  8
VERDECKT
100
AcDbCircle
 10
-167.2539458664845
 20
296.7978023909986
 30
0.0
 40
62.00000000000027
100
AcDbArc
 50
93.55980266647319
 51
175.058270492695
  0
ARC
  5
39
330
2
100
AcDbEntity
  8
FALZ_LAVANTO
100
AcDbCircle
 10
-167.2539458664845
 20
296.7978023909986
 30
0.0
 40
63.50000000000028
100
AcDbArc
 50
93.55980266647319
 51
175.058270492695
  0
ARC
  5
3A
330
2
100
AcDbEntity
  8
UK_AUSSCHNITT
100
AcDbCircle
 10
-167.2539458664845
 20
296.7978023909986
 30
0.0
 40
66.50000000000027
100
AcDbArc
 50
93.55980266647319
 51
175.0580215205066
  0
ARC
  5
3C
330
2
100
AcDbEntity
  8
VERDECKT
100
AcDbCircle
 10
0.0000000000090381
 20
2741.524474866788
 30
0.0
 40
2753.524474866788
100
AcDbArc
 50
266.4371672997182
 51
273.5628173353094
  0
ARC
  5
3D
330
2
100
AcDbEntity
  8
WST
370
    30
100
AcDbCircle
 10
0.0000000000083169
 20
2741.524474866811
 30
0.0
 40
2741.524474866811
100
AcDbArc
 50
266.4371672997183
 51
273.5628327002817
  0
ARC
  5
3E
330
2
100
AcDbEntity
  8
WST
370
    30
100
AcDbCircle
 10
0.0000000000059366
 20
-2389.52469880732
 30
0.0
 40
2741.524189438644
100
AcDbArc
 50
86.43735429126545
 51
93.56264570873495
  0
ARC
  5
3F
330
2
100
AcDbEntity
  8
VERDECKT
100
AcDbCircle
 10
0.0000000000089955
 20
-2389.524698807292
 30
0.0
 40
2753.524189438616
100
AcDbArc
 50
86.43736157291209
 51
93.56264570873495
  0
ARC
  5
40
330
2
100
AcDbEntity
  8
CORIAN_AUSSCHNITT
100
AcDbCircle
 10
0.0000000000059366
 20
-2389.52469880732
 30
0.0
 40
2738.524189438644
100
AcDbArc
 50
86.43735429126545
 51
93.56264570873495
  0
ARC
  5
41
330
2
100
AcDbEntity
  8
CORIAN_AUSSCHNITT
100
AcDbCircle
 10
0.0000000000083169
 20
2741.524474866811
 30
0.0
 40
2738.524474866811
100
AcDbArc
 50
266.4371672997183
 51
273.5628327002817
  0
ARC
  5
42
330
2
100
AcDbEntity
  8
FALZ_LAVANTO
100
AcDbCircle
 10
0.0000000000090381
 20
2741.524474866788
 30
0.0
 40
2755.024474866788
100
AcDbArc
 50
266.4371672997182
 51
273.5628173353094
  0
ARC
  5
43
330
2
100
AcDbEntity
  8
FALZ_LAVANTO
100
AcDbCircle
 10
0.0000000000089955
 20
-2389.524698807292
 30
0.0
 40
2755.024189438616
100
AcDbArc
 50
91.07719202906691
 51
93.56264570873495
  0
ARC
  5
44
330
2
100
AcDbEntity
  8
UK_AUSSCHNITT
100
AcDbCircle
 10
0.0000000000089955
 20
-2389.524698807292
 30
0.0
 40
2758.024189438616
100
AcDbArc
 50
91.10556508579788
 51
93.56264570873495
  0
ARC
  5
45
330
2
100
AcDbEntity
  8
UK_AUSSCHNITT
100
AcDbCircle
 10
0.0000000000090381
 20
2741.524474866788
 30
0.0
 40
2758.024474866788
100
AcDbArc
 50
266.4371771097559
 51
273.5628228894585
  0
ARC
  5
46
330
2
100
AcDbEntity
  8
WST
370
    30
100
AcDbCircle
 10
1228.276311637941
 20
175.9492750575414
 30
0.0
 40
1450.753034878742
100
AcDbArc
 50
175.0510016641254
 51
184.9596852728368
  0
ARC
  5
47
330
2
100
AcDbEntity
  8
VERDECKT
100
AcDbCircle
 10
1228.276311637941
 20
175.9492750575409
 30
0.0
 40
1462.753034878742
100
AcDbArc
 50
175.0510331429025
 51
184.926231788121
  0
ARC
  5
48
330
2
100
AcDbEntity
  8
CORIAN_AUSSCHNITT
100
AcDbCircle
 10
1228.276311637941
 20
175.9492750575414
 30
0.0
 40
1447.753034878742
100
AcDbArc
 50
175.0510016641254
 51
184.9596852728368
  0
ARC
  5
49
330
2
100
AcDbEntity
  8
FALZ_LAVANTO
100
AcDbCircle
 10
1228.276311637941
 20
175.9492750575409
 30
0.0
 40
1464.253034878742
100
AcDbArc
 50
175.0510331429025
 51
184.926231788121
  0
ARC
  5
4A
330
2
100
AcDbEntity
  8
UK_AUSSCHNITT
100
AcDbCircle
 10
1228.276311637941
 20
175.9492750575409
 30
0.0
 40
1467.253034878742
100
AcDbArc
 50
175.0510440554253
 51
184.9446847830626
  0
ARC
  5
4B
330
2
100
AcDbEntity
  8
UK_AUSSCHNITT
100
AcDbCircle
 10
-167.2627309776023
 20
55.20223467447067
 30
0.0
 40
66.5000000000001
100
AcDbArc
 50
184.9355069689798
 51
266.4402250280536
  0
ARC
  5
4C
330
2
100
AcDbEntity
  8
WST
370
    30
100
AcDbCircle
 10
-167.2627309776024
 20
55.20223467447067
 30
0.0
 40
50.00000000000003
100
AcDbArc
 50
185.3677218566426
 51
266.440692951904
  0
ARC
  5
4D
330
2
100
AcDbEntity
  8
VERDECKT
100
AcDbCircle
 10
-167.2627309776023
 20
55.20223467447067
 30
0.0
 40
62.00000000000009
100
AcDbArc
 50
184.4994916028199
 51
266.4400105676102
  0
ARC
  5
4E
330
2
100
AcDbEntity
  8
CORIAN_AUSSCHNITT
100
AcDbCircle
 10
-167.2627309776024
 20
55.20223467447067
 30
0.0
 40
47.00000000000002
100
AcDbArc
 50
185.3677218566426
 51
266.440692951904
  0
ARC
  5
4F
330
2
100
AcDbEntity
  8
FALZ_LAVANTO
100
AcDbCircle
 10
-167.2627309776023
 20
55.20223467447067
 30
0.0
 40
63.50000000000009
100
AcDbArc
 50
184.4994916028199
 51
266.4400105676102
  0
ARC
  5
50
330
2
100
AcDbEntity
  8
WST
370
    30
100
AcDbCircle
 10
-167.2539458664848
 20
296.7978023909989
 30
0.0
 40
50.00000000000007
100
AcDbArc
 50
93.55912033633028
 51
175.0590940979424
  0
ARC
  5
51
330
2
100
AcDbEntity
  8
CORIAN_AUSSCHNITT
100
AcDbCircle
 10
-167.2539458664848
 20
296.7978023909989
 30
0.0
 40
47.00000000000006
100
AcDbArc
 50
93.55912033633028
 51
175.0590940979424
  0
ARC
  5
52
330
2
100
AcDbEntity
  8
WST
370
    30
100
AcDbCircle
 10
167.2539458664847
 20
296.7978023909986
 30
0.0
 40
50.00000000000018
100
AcDbArc
 50
4.940905902057599
 51
86.44087966367012
  0
ARC
  5
53
330
2
100
AcDbEntity
  8
VERDECKT
100
AcDbCircle
 10
167.2627309776026
 20
55.20223467446658
 30
0.0
 40
61.99999999999922
100
AcDbArc
 50
273.5593070480955
 51
355.0449384937382
  0
ARC
  5
54
330
2
100
AcDbEntity
  8
WST
370
    30
100
AcDbCircle
 10
167.2627309776025
 20
55.20223467446658
 30
0.0
 40
49.99999999999928
100
AcDbArc
 50
273.5593070480957
 51
355.043855162901
  0
ARC
  5
55
330
2
100
AcDbEntity
  8
FALZ_LAVANTO
100
AcDbCircle
 10
167.2627309776026
 20
55.20223467446658
 30
0.0
 40
63.49999999999923
100
AcDbArc
 50
273.5593070480955
 51
355.0449384937382
  0
ARC
  5
56
330
2
100
AcDbEntity
  8
UK_AUSSCHNITT
100
AcDbCircle
 10
167.2627309776026
 20
55.20223467446658
 30
0.0
 40
66.49999999999923
100
AcDbArc
 50
273.5597749393824
 51
355.0644930290276
  0
ARC
  5
5B
330
2
100
AcDbEntity
  8
WST
370
    30
100
AcDbCircle
 10
-1228.276311637994
 20
175.9492750575432
 30
0.0
 40
1450.753034878795
100
AcDbArc
 50
355.0544995527301
 51
4.948998335874563
  0
ARC
  5
5C
330
2
100
AcDbEntity
  8
CORIAN_AUSSCHNITT
100
AcDbCircle
 10
-1228.276311637994
 20
175.9492750575432
 30
0.0
 40
1447.753034878795
100
AcDbArc
 50
355.0544995527301
 51
4.948998335874563
  0
ARC
  5
5D
330
2
100
AcDbEntity
  8
CORIAN_AUSSCHNITT
100
AcDbCircle
 10
167.2627309776025
 20
55.20223467446658
 30
0.0
 40
46.99999999999927
100
AcDbArc
 50
273.5593070480957
 51
355.043855162901
  0
ARC
  5
5E
330
2
100
AcDbEntity
  8
FALZ_LAVANTO
100
AcDbCircle
 10
-6.721979412380157
 20
-1675.433883960443
 30
0.0
 40
2040.944212498457
100
AcDbArc
 50
88.73798082072744
 51
91.26538694505475
  0
CIRCLE
  5
5F
330
2
100
AcDbEntity
  8
VERDECKT
  6
ACAD_ISO03W100
100
AcDbCircle
 10
0.000000071188424
 20
175.9997453156627
 30
0.0
 40
45.0
  0
MTEXT
  5
62
330
2
100
AcDbEntity
  8
TEXT
100
AcDbMText
 10
-132.1770937513361
 20
272.4701706483045
 30
0.0
 40
25.0
 41
297.1242
 71
     1
 72
     5
  1
DecoBowl 445
  7
Text R+P
 73
     1
 44
1.0
1001
ACAD
1000
MTEXTBEGIN
1070
    73
1070
     1
1070
    44
1040
1.0
1070
    74
1070
     0
1000
MTEXTEND
  0
CIRCLE
  5
63
330
2
100
AcDbEntity
  8
TEXT
100
AcDbCircle
 10
0.0
 20
175.9997453156627
 30
0.0
 40
35.0
  0
CIRCLE
  5
64
330
2
100
AcDbEntity
  8
TEXT
100
AcDbCircle
 10
0.000000071188424
 20
175.9997453156627
 30
0.0
 40
23.0
  0
ARC
  5
65
330
2
100
AcDbEntity
  8
FALZ_LAVANTO
100
AcDbCircle
 10
0.0000000000089955
 20
-2389.524698807292
 30
0.0
 40
2755.024189438616
100
AcDbArc
 50
86.43736157291209
 51
88.9257387360401
  0
ARC
  5
66
330
2
100
AcDbEntity
  8
UK_AUSSCHNITT
100
AcDbCircle
 10
0.0000000000089955
 20
-2389.524698807292
 30
0.0
 40
2758.024189438616
100
AcDbArc
 50
86.43736410182752
 51
88.89736375576513
  0
ARC
  5
67
330
2
100
AcDbEntity
  8
CORIAN_AUSSCHNITT
100
AcDbCircle
 10
167.2539458664847
 20
296.7978023909986
 30
0.0
 40
47.00000000000018
100
AcDbArc
 50
4.940905902057599
 51
86.44087966367012
  0
ARC
  5
68
330
2
100
AcDbEntity
  8
VERDECKT
100
AcDbCircle
 10
-1228.276311637829
 20
175.9492750575434
 30
0.0
 40
1462.753034878631
100
AcDbArc
 50
355.0544581471253
 51
4.948966857162913
  0
ARC
  5
69
330
2
100
AcDbEntity
  8
FALZ_LAVANTO
100
AcDbCircle
 10
-1228.276311637829
 20
175.9492750575434
 30
0.0
 40
1464.253034878631
100
AcDbArc
 50
355.0544581471253
 51
4.948966857162913
  0
ARC
  5
6A
330
2
100
AcDbEntity
  8
UK_AUSSCHNITT
100
AcDbCircle
 10
-1228.276311637829
 20
175.9492750575434
 30
0.0
 40
1467.253034878631
100
AcDbArc
 50
355.0553152168465
 51
4.94895594470737
  0
ARC
  5
6B
330
2
100
AcDbEntity
  8
FALZ_LAVANTO
100
AcDbCircle
 10
-0.0693404832810813
 20
53.58678836305421
 30
0.0
 40
322.599335
100
AcDbArc
 50
81.98154499999544
 51
98.01845495402115
  0
ARC
  5
6C
330
2
100
AcDbEntity
  8
UK_AUSSCHNITT
100
AcDbCircle
 10
-0.0693404832810813
 20
53.58678836305421
 30
0.0
 40
325.599335
100
AcDbArc
 50
81.77847138042087
 51
98.22152862641388
  0
VIEWPORT
  5
A3
102
{ACAD_XDICTIONARY
360
10F
102
}
330
9B
100
AcDbEntity
 67
     1
  8
0
100
AcDbViewport
 10
101.7693283557892
 20
145.3515045642852
 30
0.0
 40
607.4327311782651
 41
314.2820835571289
 68
     1
 69
     1
 12
101.7693283557892
 22
145.3515045642852
 13
0.0
 23
0.0
 14
10.0
 24
10.0
 15
10.0
 25
10.0
 16
0.0
 26
0.0
 36
1.0
 17
0.0
 27
0.0
 37
0.0
 42
50.0
 43
0.0
 44
0.0
 45
314.2820835571289
 50
0.0
 51
0.0
 72
   100
 90
    32800
  1

281
     0
 71
     1
 74
     0
110
0.0
120
0.0
130
0.0
111
1.0
121
0.0
131
0.0
112
0.0
122
1.0
132
0.0
 79
     0
146
0.0
  0
VIEWPORT
  5
A5
102
{ACAD_XDICTIONARY
360
111
102
}
330
9B
100
AcDbEntity
 67
     1
  8
0
100
AcDbViewport
 10
101.7693268060684
 20
145.351510643959
 30
0.0
 40
203.5386536121368
 41
290.7030212879181
 68
     2
 69
     2
 12
8.309252937568032
 22
197.5359267562343
 13
0.0
 23
0.0
 14
10.0
 24
10.0
 15
10.0
 25
10.0
 16
0.0
 26
0.0
 36
1.0
 17
0.0
 27
0.0
 37
0.0
 42
50.0
 43
0.0
 44
0.0
 45
993.9256522028074
 50
0.0
 51
0.0
 72
   100
 90
    32864
  1

281
     0
 71
     1
 74
     0
110
0.0
120
0.0
130
0.0
111
1.0
121
0.0
131
0.0
112
0.0
122
1.0
132
0.0
 79
     0
146
0.0
  0
INSERT
  5
FB
330
9B
100
AcDbEntity
 67
     1
  8
0
100
AcDbBlockReference
 66
     1
  2
A4_H.dwg
 10
0.0
 20
0.0
 30
0.0
  0
ATTRIB
  5
FD
330
FB
100
AcDbEntity
 67
     1
  8
RAHMEN
100
AcDbText
 10
139.9012711605863
 20
6.916792940921226
 30
0.0
 40
1.476068289234091
  1
02.12.2011
100
AcDbAttribute
  2
REVDATE
 70
     0
  0
ATTRIB
  5
FE
330
FB
100
AcDbEntity
 67
     1
  8
RAHMEN
100
AcDbText
 10
167.7292969851413
 20
7.151134982195202
 30
0.0
 40
1.476068289234091
  1
ygl
100
AcDbAttribute
  2
USER
 70
     0
  0
ATTRIB
  5
FF
330
FB
100
AcDbEntity
 67
     1
  8
RAHMEN
100
AcDbText
 10
97.92542717154001
 20
7.498682143825192
 30
0.0
 40
1.476068289234091
  1
db445.dxf
100
AcDbAttribute
  2
FNAME
 70
     0
  0
ATTRIB
  5
100
330
FB
100
AcDbEntity
 67
     1
  8
RAHMEN
100
AcDbText
 10
98.11763385388472
 20
1.254680691921578
 30
0.0
 40
1.598969081811834
  1
-
100
AcDbAttribute
  2
TEXT4
 70
     0
  0
ATTRIB
  5
101
330
FB
100
AcDbEntity
 67
     1
  8
RAHMEN
100
AcDbText
 10
139.9365136052734
 20
0.8237646204792099
 30
0.0
 40
1.598969081811834
  1
-
100
AcDbAttribute
  2
TEXT5
 70
     0
  0
ATTRIB
  5
102
330
FB
100
AcDbEntity
 67
     1
  8
RAHMEN
100
AcDbText
 10
167.5262671450728
 20
0.5667526156229315
 30
0.0
 40
1.598969081811834
  1
-
100
AcDbAttribute
  2
TEXT6
 70
     0
  0
ATTRIB
  5
103
330
FB
100
AcDbEntity
 67
     1
  8
RAHMEN
100
AcDbText
 10
97.8287739780711
 20
13.29614296459522
 30
0.0
 40
1.598969081811834
  1
-
100
AcDbAttribute
  2
TEXT3
 70
     0
  0
ATTRIB
  5
104
330
FB
100
AcDbEntity
 67
     1
  8
RAHMEN
100
AcDbText
 10
97.8287739780711
 20
19.33519746077308
 30
0.0
 40
1.598969081811834
  1
-
100
AcDbAttribute
  2
TEXT2
 70
     0
  0
ATTRIB
  5
105
330
FB
100
AcDbEntity
 67
     1
  8
RAHMEN
100
AcDbText
 10
97.98573821572844
 20
25.4533906928485
 30
0.0
 40
1.598969081811834
  1
-
100
AcDbAttribute
  2
TEXT1
 70
     0
  0
SEQEND
  5
FC
330
FB
100
AcDbEntity
 67
     1
  8
0
  0
ENDSEC
  0
SECTION
  2
OBJECTS
  0
DICTIONARY
  5
7
330
0
100
AcDbDictionary
281
     1
  3
ACAD_COLOR
350
7E
  3
ACAD_GROUP
350
24
  3
ACAD_LAYOUT
350
B
  3
ACAD_MATERIAL
350
7D
  3
ACAD_MLINESTYLE
350
25
  3
ACAD_PLOTSETTINGS
350
26
  3
ACAD_PLOTSTYLENAME
350
6
  3
ACDBHEADERROUNDTRIPXREC
350
108
  3
AcDbVariableDictionary
350
8C
  0
DICTIONARY
  5
F8
330
CA
100
AcDbDictionary
280
     1
281
     1
  0
DICTIONARY
  5
113
330
F4
100
AcDbDictionary
280
     1
281
     1
  3
ACAD_MTEXT_RT
360
114
  0
DICTIONARY
  5
10F
330
A3
100
AcDbDictionary
280
     1
281
     1
  3
ACAD_XREC_ROUNDTRIP
360
110
  0
DICTIONARY
  5
111
330
A5
100
AcDbDictionary
280
     1
281
     1
  3
ACAD_XREC_ROUNDTRIP
360
112
  0
DICTIONARY
  5
7E
102
{ACAD_REACTORS
330
7
102
}
330
7
100
AcDbDictionary
281
     1
  0
DICTIONARY
  5
24
102
{ACAD_REACTORS
330
7
102
}
330
7
100
AcDbDictionary
281
     1
  0
DICTIONARY
  5
B
102
{ACAD_REACTORS
330
7
102
}
330
7
100
AcDbDictionary
281
     1
  3
A4
350
9C
  3
Model
350
A
  0
DICTIONARY
  5
7D
102
{ACAD_REACTORS
330
7
102
}
330
7
100
AcDbDictionary
281
     1
  0
DICTIONARY
  5
25
102
{ACAD_REACTORS
330
7
102
}
330
7
100
AcDbDictionary
281
     1
  3
Standard
350
29
  0
DICTIONARY
  5
26
102
{ACAD_REACTORS
330
7
102
}
330
7
100
AcDbDictionary
281
     1
  0
ACDBDICTIONARYWDFLT
  5
6
102
{ACAD_REACTORS
330
7
102
}
330
7
100
AcDbDictionary
281
     1
  3
Normal
350
5
100
AcDbDictionaryWithDefault
340
5
  0
DICTIONARY
  5
108
102
{ACAD_REACTORS
330
7
102
}
330
7
100
AcDbDictionary
281
     1
  3
COLORDICT
350
10A
  3
MATERIALDICT
350
109
  0
DICTIONARY
  5
8C
102
{ACAD_REACTORS
330
7
102
}
330
7
100
AcDbDictionary
281
     1
  3
DIMASSOC
350
8D
  3
PROJECTNAME
350
8E
  0
XRECORD
  5
114
102
{ACAD_REACTORS
330
113
102
}
330
113
100
AcDbXrecord
280
     1
 40
1897382.0
  1
{\fFrutiger Linotype|b1|i0|c0|p34;kläusler \C242;acrylstein\C256; ag\fFrutiger Linotype|b0|i0|c0|p34;\P\H0.5x;Bruggacherstrasse 18   8117 Fällanden^JTel 044 825 31 79   Fax 044 825 39 77\Pwww.himacs.ch   info@himacs.ch}
  0
XRECORD
  5
110
102
{ACAD_REACTORS
330
10F
102
}
330
10F
100
AcDbXrecord
280
     1
102
SHADEPLOT
 70
     0
  0
XRECORD
  5
112
102
{ACAD_REACTORS
330
111
102
}
330
111
100
AcDbXrecord
280
     1
102
SHADEPLOT
 70
     0
  0
LAYOUT
  5
9C
102
{ACAD_XDICTIONARY
360
10D
102
}
102
{ACAD_REACTORS
330
B
102
}
330
B
100
AcDbPlotSettings
  1

  2
FreePDF XP
  4
A4
  6

 40
3.174999952316284
 41
3.174999952316284
 42
3.175003051757812
 43
3.17498779296875
 44
209.8886566162109
 45
297.0530090332031
 46
0.0
 47
0.0
 48
0.0
 49
0.0
140
0.0
141
0.0
142
1.0
143
1.0
 70
   688
 72
     1
 73
     0
 74
     5
  7

 75
    16
147
1.0
148
0.0
149
0.0
100
AcDbLayout
  1
A4
 70
     1
 71
     1
 10
-3.174999952316284
 20
-3.174999952316284
 11
206.7136566638946
 21
293.8780090808868
 12
0.0
 22
0.0
 32
0.0
 14
0.0
 24
0.0
 34
0.0
 15
203.5386536121368
 25
290.7030212879181
 35
0.0
146
0.0
 13
0.0
 23
0.0
 33
0.0
 16
1.0
 26
0.0
 36
0.0
 17
0.0
 27
1.0
 37
0.0
 76
     0
330
9B
331
A3
  0
LAYOUT
  5
A
102
{ACAD_XDICTIONARY
360
10B
102
}
102
{ACAD_REACTORS
330
B
102
}
330
B
100
AcDbPlotSettings
  1

  2
HP LaserJet 4100 PCL 6.pc3
  4
A4
  6

 40
4.233333110809326
 41
4.910679340362547
 42
4.910659790039061
 43
4.23333740234375
 44
209.9733276367186
 45
296.9259948730469
 46
-164.04
 47
-304.29
 48
0.0
 49
0.0
140
0.0
141
0.0
142
1.0
143
10.0
 70
 11956
 72
     1
 73
     1
 74
     0
  7
monochrome.ctb
 75
    20
147
0.1
148
678.8188834860811
149
689.909331352097
100
AcDbLayout
  1
Model
 70
     1
 71
     0
 10
0.0
 20
0.0
 11
12.0
 21
9.0
 12
0.0
 22
0.0
 32
0.0
 14
0.0
 24
0.0
 34
0.0
 15
0.0
 25
0.0
 35
0.0
146
0.0
 13
0.0
 23
0.0
 33
0.0
 16
1.0
 26
0.0
 36
0.0
 17
0.0
 27
1.0
 37
0.0
 76
     0
330
2
  0
MLINESTYLE
  5
29
102
{ACAD_REACTORS
330
25
102
}
330
25
100
AcDbMlineStyle
  2
STANDARD
 70
     0
  3

 62
   256
 51
90.0
 52
90.0
 71
     2
 49
0.5
 62
   256
  6
BYLAYER
 49
-0.5
 62
   256
  6
BYLAYER
  0
ACDBPLACEHOLDER
  5
5
102
{ACAD_REACTORS
330
6
102
}
330
6
  0
XRECORD
  5
10A
102
{ACAD_REACTORS
330
108
102
}
330
108
100
AcDbXrecord
280
     1
340
7E
  0
XRECORD
  5
109
102
{ACAD_REACTORS
330
108
102
}
330
108
100
AcDbXrecord
280
     1
340
7D
  0
DICTIONARYVAR
  5
8D
102
{ACAD_REACTORS
330
8C
102
}
330
8C
100
DictionaryVariables
280
     0
  1
1
  0
DICTIONARYVAR
  5
8E
102
{ACAD_REACTORS
330
8C
102
}
330
8C
100
DictionaryVariables
280
     0
  1

  0
DICTIONARY
  5
10D
330
9C
100
AcDbDictionary
280
     1
281
     1
  3
ACAD_XREC_ROUNDTRIP
360
10E
  0
DICTIONARY
  5
10B
330
A
100
AcDbDictionary
280
     1
281
     1
  3
ACAD_XREC_ROUNDTRIP
360
10C
  0
XRECORD
  5
10E
102
{ACAD_REACTORS
330
10D
102
}
330
10D
100
AcDbXrecord
280
     1
102
SHADEPLOT
 70
     0
102
SHADEPLOTRESLEVEL
 70
     2
102
SHADEPLOTCUSTOMDPI
 70
   300
  0
XRECORD
  5
10C
102
{ACAD_REACTORS
330
10B
102
}
330
10B
100
AcDbXrecord
280
     1
102
SHADEPLOT
 70
     0
102
SHADEPLOTRESLEVEL
 70
     2
102
SHADEPLOTCUSTOMDPI
 70
   300
  0
ENDSEC
  0
EOF
