  0
SECTION
  2
HEADER
  9
$ACADVER
  1
AC1015
  9
$ACADMAINTVER
 70
    20
  9
$DWGCODEPAGE
  3
ANSI_1252
  9
$INSBASE
 10
0.0
 20
0.0
 30
0.0
  9
$EXTMIN
 10
4199.221278080321
 20
7837.46761592339
 30
0.0
  9
$EXTMAX
 10
4716.314883003053
 20
8224.009706856714
 30
0.0
  9
$LIMMIN
 10
0.0
 20
0.0
  9
$LIMMAX
 10
297.0
 20
210.0
  9
$ORTHOMODE
 70
     1
  9
$REGENMODE
 70
     1
  9
$FILLMODE
 70
     1
  9
$QTEXTMODE
 70
     0
  9
$MIRRTEXT
 70
     1
  9
$LTSCALE
 40
1.0
  9
$ATTMODE
 70
     1
  9
$TEXTSIZE
 40
10.0
  9
$TRACEWID
 40
0.05
  9
$TEXTSTYLE
  7
LOGO
  9
$CLAYER
  8
BEM1-10
  9
$CELTYPE
  6
BYLAYER
  9
$CECOLOR
 62
   256
  9
$CELTSCALE
 40
1.0
  9
$DISPSILH
 70
     0
  9
$DIMSCALE
 40
1.0
  9
$DIMASZ
 40
10.0
  9
$DIMEXO
 40
10.0
  9
$DIMDLI
 40
5.0
  9
$DIMRND
 40
0.0
  9
$DIMDLE
 40
0.0
  9
$DIMEXE
 40
5.0
  9
$DIMTP
 40
0.0
  9
$DIMTM
 40
0.0
  9
$DIMTXT
 40
25.0
  9
$DIMCEN
 40
10.0
  9
$DIMTSZ
 40
0.0
  9
$DIMTOL
 70
     0
  9
$DIMLIM
 70
     0
  9
$DIMTIH
 70
     0
  9
$DIMTOH
 70
     1
  9
$DIMSE1
 70
     0
  9
$DIMSE2
 70
     0
  9
$DIMTAD
 70
     3
  9
$DIMZIN
 70
     0
  9
$DIMBLK
  1
Oblique
  9
$DIMASO
 70
     1
  9
$DIMSHO
 70
     1
  9
$DIMPOST
  1

  9
$DIMAPOST
  1

  9
$DIMALT
 70
     0
  9
$DIMALTD
 70
     2
  9
$DIMALTF
 40
0.03937
  9
$DIMLFAC
 40
1.0
  9
$DIMTOFL
 70
     0
  9
$DIMTVP
 40
0.0
  9
$DIMTIX
 70
     0
  9
$DIMSOXD
 70
     0
  9
$DIMSAH
 70
     0
  9
$DIMBLK1
  1

  9
$DIMBLK2
  1

  9
$DIMSTYLE
  2
BEM1-10
  9
$DIMCLRD
 70
   164
  9
$DIMCLRE
 70
   164
  9
$DIMCLRT
 70
   164
  9
$DIMTFAC
 40
1.0
  9
$DIMGAP
 40
4.0
  9
$DIMJUST
 70
     0
  9
$DIMSD1
 70
     0
  9
$DIMSD2
 70
     0
  9
$DIMTOLJ
 70
     1
  9
$DIMTZIN
 70
     0
  9
$DIMALTZ
 70
     0
  9
$DIMALTTZ
 70
     0
  9
$DIMUPT
 70
     0
  9
$DIMDEC
 70
     1
  9
$DIMTDEC
 70
     1
  9
$DIMALTU
 70
     2
  9
$DIMALTTD
 70
     2
  9
$DIMTXSTY
  7
STANDARD
  9
$DIMAUNIT
 70
     0
  9
$DIMADEC
 70
     1
  9
$DIMALTRND
 40
0.0
  9
$DIMAZIN
 70
     0
  9
$DIMDSEP
 70
    46
  9
$DIMATFIT
 70
     3
  9
$DIMFRAC
 70
     0
  9
$DIMLDRBLK
  1
Oblique
  9
$DIMLUNIT
 70
     2
  9
$DIMLWD
 70
    -1
  9
$DIMLWE
 70
    -1
  9
$DIMTMOVE
 70
     0
  9
$LUNITS
 70
     2
  9
$LUPREC
 70
     4
  9
$SKETCHINC
 40
0.1
  9
$FILLETRAD
 40
10.0
  9
$AUNITS
 70
     0
  9
$AUPREC
 70
     0
  9
$MENU
  1
acad
  9
$ELEVATION
 40
0.0
  9
$PELEVATION
 40
0.0
  9
$THICKNESS
 40
0.0
  9
$LIMCHECK
 70
     0
  9
$CHAMFERA
 40
10.0
  9
$CHAMFERB
 40
10.0
  9
$CHAMFERC
 40
20.0
  9
$CHAMFERD
 40
0.0
  9
$SKPOLY
 70
     0
  9
$TDCREATE
 40
2453993.567875834
  9
$TDUCREATE
 40
2453993.526209167
  9
$TDUPDATE
 40
2455898.477276736
  9
$TDUUPDATE
 40
2455898.435610070
  9
$TDINDWG
 40
0.0294956366
  9
$TDUSRTIMER
 40
0.0294954514
  9
$USRTIMER
 70
     1
  9
$ANGBASE
 50
0.0
  9
$ANGDIR
 70
     0
  9
$PDMODE
 70
     0
  9
$PDSIZE
 40
0.0
  9
$PLINEWID
 40
0.0
  9
$SPLFRAME
 70
     0
  9
$SPLINETYPE
 70
     6
  9
$SPLINESEGS
 70
     8
  9
$HANDSEED
  5
1186
  9
$SURFTAB1
 70
     6
  9
$SURFTAB2
 70
     6
  9
$SURFTYPE
 70
     6
  9
$SURFU
 70
     6
  9
$SURFV
 70
     6
  9
$UCSBASE
  2

  9
$UCSNAME
  2

  9
$UCSORG
 10
0.0
 20
0.0
 30
0.0
  9
$UCSXDIR
 10
1.0
 20
0.0
 30
0.0
  9
$UCSYDIR
 10
0.0
 20
1.0
 30
0.0
  9
$UCSORTHOREF
  2

  9
$UCSORTHOVIEW
 70
     0
  9
$UCSORGTOP
 10
0.0
 20
0.0
 30
0.0
  9
$UCSORGBOTTOM
 10
0.0
 20
0.0
 30
0.0
  9
$UCSORGLEFT
 10
0.0
 20
0.0
 30
0.0
  9
$UCSORGRIGHT
 10
0.0
 20
0.0
 30
0.0
  9
$UCSORGFRONT
 10
0.0
 20
0.0
 30
0.0
  9
$UCSORGBACK
 10
0.0
 20
0.0
 30
0.0
  9
$PUCSBASE
  2

  9
$PUCSNAME
  2

  9
$PUCSORG
 10
0.0
 20
0.0
 30
0.0
  9
$PUCSXDIR
 10
1.0
 20
0.0
 30
0.0
  9
$PUCSYDIR
 10
0.0
 20
1.0
 30
0.0
  9
$PUCSORTHOREF
  2

  9
$PUCSORTHOVIEW
 70
     0
  9
$PUCSORGTOP
 10
0.0
 20
0.0
 30
0.0
  9
$PUCSORGBOTTOM
 10
0.0
 20
0.0
 30
0.0
  9
$PUCSORGLEFT
 10
0.0
 20
0.0
 30
0.0
  9
$PUCSORGRIGHT
 10
0.0
 20
0.0
 30
0.0
  9
$PUCSORGFRONT
 10
0.0
 20
0.0
 30
0.0
  9
$PUCSORGBACK
 10
0.0
 20
0.0
 30
0.0
  9
$USERI1
 70
     0
  9
$USERI2
 70
     0
  9
$USERI3
 70
     0
  9
$USERI4
 70
     0
  9
$USERI5
 70
     0
  9
$USERR1
 40
0.0
  9
$USERR2
 40
0.0
  9
$USERR3
 40
0.0
  9
$USERR4
 40
0.0
  9
$USERR5
 40
0.0
  9
$WORLDVIEW
 70
     1
  9
$SHADEDGE
 70
     3
  9
$SHADEDIF
 70
    70
  9
$TILEMODE
 70
     0
  9
$MAXACTVP
 70
    16
  9
$PINSBASE
 10
0.0
 20
0.0
 30
0.0
  9
$PLIMCHECK
 70
     0
  9
$PEXTMIN
 10
0.0
 20
0.0
 30
0.0
  9
$PEXTMAX
 10
203.5386536121368
 20
290.7030212879181
 30
0.0
  9
$PLIMMIN
 10
-3.174999952316284
 20
-3.174999952316284
  9
$PLIMMAX
 10
206.7136566638946
 20
293.8780090808868
  9
$UNITMODE
 70
     0
  9
$VISRETAIN
 70
     0
  9
$PLINEGEN
 70
     0
  9
$PSLTSCALE
 70
     1
  9
$TREEDEPTH
 70
  3020
  9
$CMLSTYLE
  2
STANDARD
  9
$CMLJUST
 70
     0
  9
$CMLSCALE
 40
20.0
  9
$PROXYGRAPHICS
 70
     1
  9
$MEASUREMENT
 70
     1
  9
$CELWEIGHT
370
    -1
  9
$ENDCAPS
280
     0
  9
$JOINSTYLE
280
     0
  9
$LWDISPLAY
290
     0
  9
$INSUNITS
 70
     0
  9
$HYPERLINKBASE
  1

  9
$STYLESHEET
  1

  9
$XEDIT
290
     1
  9
$CEPSNTYPE
380
     0
  9
$PSTYLEMODE
290
     1
  9
$FINGERPRINTGUID
  2
{B63B381C-112C-4040-82BB-9A19C0B1AD7C}
  9
$VERSIONGUID
  2
{E53D0052-73CB-45BD-B517-A70FD9D60605}
  9
$EXTNAMES
290
     1
  9
$PSVPSCALE
 40
0.0
  9
$OLESTARTUP
290
     0
  0
ENDSEC
  0
SECTION
  2
CLASSES
  0
CLASS
  1
ACDBDICTIONARYWDFLT
  2
AcDbDictionaryWithDefault
  3
ObjectDBX Classes
 90
        0
280
     0
281
     0
  0
CLASS
  1
DICTIONARYVAR
  2
AcDbDictionaryVar
  3
ObjectDBX Classes
 90
        0
280
     0
281
     0
  0
CLASS
  1
ACDBPLACEHOLDER
  2
AcDbPlaceHolder
  3
ObjectDBX Classes
 90
        0
280
     0
281
     0
  0
CLASS
  1
LAYOUT
  2
AcDbLayout
  3
ObjectDBX Classes
 90
        0
280
     0
281
     0
  0
ENDSEC
  0
SECTION
  2
TABLES
  0
TABLE
  2
VPORT
  5
8
330
0
100
AcDbSymbolTable
 70
     1
  0
VPORT
  5
110E
330
8
100
AcDbSymbolTableRecord
100
AcDbViewportTableRecord
  2
*Active
 70
     0
 10
0.0
 20
0.0
 11
1.0
 21
1.0
 12
4868.353117645587
 22
7954.089975089459
 13
0.0
 23
0.0
 14
10.0
 24
10.0
 15
10.0
 25
10.0
 16
0.0
 26
0.0
 36
1.0
 17
0.0
 27
0.0
 37
0.0
 40
1249.063939866692
 41
1.487405541561711
 42
50.0
 43
0.0
 44
0.0
 50
0.0
 51
0.0
 71
     0
 72
   100
 73
     1
 74
     0
 75
     0
 76
     0
 77
     0
 78
     0
281
     0
 65
     1
110
0.0
120
0.0
130
0.0
111
1.0
121
0.0
131
0.0
112
0.0
122
1.0
132
0.0
 79
     0
146
0.0
  0
ENDTAB
  0
TABLE
  2
LTYPE
  5
5
330
0
100
AcDbSymbolTable
 70
    19
  0
LTYPE
  5
13
330
5
100
AcDbSymbolTableRecord
100
AcDbLinetypeTableRecord
  2
BYBLOCK
 70
     0
  3

 72
    65
 73
     0
 40
0.0
  0
LTYPE
  5
14
330
5
100
AcDbSymbolTableRecord
100
AcDbLinetypeTableRecord
  2
BYLAYER
 70
     0
  3

 72
    65
 73
     0
 40
0.0
  0
LTYPE
  5
15
330
5
100
AcDbSymbolTableRecord
100
AcDbLinetypeTableRecord
  2
CONTINUOUS
 70
     0
  3
Solid line
 72
    65
 73
     0
 40
0.0
  0
LTYPE
  5
BD
330
5
100
AcDbSymbolTableRecord
100
AcDbLinetypeTableRecord
  2
STRICHPUNKT
 70
     0
  3
__ . __ . __ . __ . __ . __ . __ . __ . __ . __
 72
    65
 73
     4
 40
1.0
 49
0.5
 74
     0
 49
-0.25
 74
     0
 49
0.0
 74
     0
 49
-0.25
 74
     0
  0
LTYPE
  5
BE
330
5
100
AcDbSymbolTableRecord
100
AcDbLinetypeTableRecord
  2
GESTRICHELT2
 70
     0
  3
_ _ _ _ _ _ _ _ _ _ _ _ _ _ _ _ _ _ _ _ _ _ _ _
 72
    65
 73
     2
 40
0.375
 49
0.25
 74
     0
 49
-0.125
 74
     0
  0
LTYPE
  5
BF
330
5
100
AcDbSymbolTableRecord
100
AcDbLinetypeTableRecord
  2
PUNKT
 70
     0
  3
. . . . . . . . . . . . . . . . . . . . . . . .
 72
    65
 73
     2
 40
0.25
 49
0.0
 74
     0
 49
-0.25
 74
     0
  0
LTYPE
  5
D6D
330
5
100
AcDbSymbolTableRecord
100
AcDbLinetypeTableRecord
  2
ACAD_ISO02W100
 70
     0
  3
ISO Strichlinie __ __ __ __ __ __ __ __ __ __ _
 72
    65
 73
     2
 40
15.0
 49
12.0
 74
     0
 49
-3.0
 74
     0
  0
LTYPE
  5
E1C
330
5
100
AcDbSymbolTableRecord
100
AcDbLinetypeTableRecord
  2
amconstr
 70
     0
  3
_______________________
 72
    65
 73
     2
 40
9999.0
 49
9999.0
 74
     0
 49
0.0
 74
     0
  0
LTYPE
  5
E1D
330
5
100
AcDbSymbolTableRecord
100
AcDbLinetypeTableRecord
  2
amzigzag
 70
     0
  3
/\/-/\/-/\/-/\/-/\/-/\/
 72
    65
 73
     2
 40
11.0001
 49
0.0001
 74
     4
 75
   135
340
E2C
 46
0.04
 50
0.0
 44
0.0
 45
0.0
 49
-11.0
 74
     0
  0
LTYPE
  5
E1E
330
5
100
AcDbSymbolTableRecord
100
AcDbLinetypeTableRecord
  2
AM_DIN_F_W050
 70
     0
  3
__ __ __ __ __ __ __ __ __ __ __ __ __ __ __
 72
    65
 73
     2
 40
6.25
 49
4.75
 74
     0
 49
-1.5
 74
     0
  0
LTYPE
  5
E1F
330
5
100
AcDbSymbolTableRecord
100
AcDbLinetypeTableRecord
  2
AM_DIN_G_W050
 70
     0
  3
____ . ____ . ____ . ____ . ____ . ____ . ____
 72
    65
 73
     4
 40
13.75
 49
9.75
 74
     0
 49
-1.5
 74
     0
 49
1.0
 74
     0
 49
-1.5
 74
     0
  0
LTYPE
  5
E20
330
5
100
AcDbSymbolTableRecord
100
AcDbLinetypeTableRecord
  2
AM_DIN_K_W050
 70
     0
  3
_____ . . _____ . . _____ . . ____ .. ____
 72
    65
 73
     6
 40
16.25
 49
9.75
 74
     0
 49
-1.5
 74
     0
 49
1.0
 74
     0
 49
-1.5
 74
     0
 49
1.0
 74
     0
 49
-1.5
 74
     0
  0
LTYPE
  5
E21
330
5
100
AcDbSymbolTableRecord
100
AcDbLinetypeTableRecord
  2
AM_DIN_F_W050x2
 70
     0
  3
 _ _ _ _ _ _ _ _ _ _ _ _
 72
    65
 73
     2
 40
3.125
 49
2.25
 74
     0
 49
-0.875
 74
     0
  0
LTYPE
  5
E22
330
5
100
AcDbSymbolTableRecord
100
AcDbLinetypeTableRecord
  2
AM_DIN_G_W050x2
 70
     0
  3
__ . __ . __ . __ . __ . __
 72
    65
 73
     4
 40
6.875
 49
4.75
 74
     0
 49
-0.875
 74
     0
 49
0.375
 74
     0
 49
-0.875
 74
     0
  0
LTYPE
  5
E23
330
5
100
AcDbSymbolTableRecord
100
AcDbLinetypeTableRecord
  2
ACISOWELD
 70
     0
  3
_ _ _ _ _
 72
    65
 73
     2
 40
2.0
 49
2.0
 74
     0
 49
-1.0
 74
     0
  0
LTYPE
  5
E24
330
5
100
AcDbSymbolTableRecord
100
AcDbLinetypeTableRecord
  2
ACISOTGB
 70
     0
  3
__ . . __ . .
 72
    65
 73
     6
 40
9.0
 49
4.0
 74
     0
 49
-1.0
 74
     0
 49
1.0
 74
     0
 49
-1.0
 74
     0
 49
1.0
 74
     0
 49
-1.0
 74
     0
  0
LTYPE
  5
E25
330
5
100
AcDbSymbolTableRecord
100
AcDbLinetypeTableRecord
  2
ACISOTGL
 70
     0
  3
_ _ _ _ _
 72
    65
 73
     2
 40
3.0
 49
2.0
 74
     0
 49
-1.0
 74
     0
  0
LTYPE
  5
E26
330
5
100
AcDbSymbolTableRecord
100
AcDbLinetypeTableRecord
  2
CENTER
 70
     0
  3
__ . __
 72
    65
 73
     4
 40
7.0
 49
4.0
 74
     0
 49
-1.0
 74
     0
 49
1.0
 74
     0
 49
-1.0
 74
     0
  0
LTYPE
  5
E27
330
5
100
AcDbSymbolTableRecord
100
AcDbLinetypeTableRecord
  2
HIDDEN
 70
     0
  3
Hidden __ __ __ __ __ __ __ __ __ __ __ __ __ _
 72
    65
 73
     2
 40
9.524999999999996
 49
6.349999999999998
 74
     0
 49
-3.174999999999998
 74
     0
  0
LTYPE
  5
E28
330
5
100
AcDbSymbolTableRecord
100
AcDbLinetypeTableRecord
  2
PHANTOM2
 70
     0
  3
Phantom (.5x) ___ _ _ ___ _ _ ___ _ _ ___ _ _
 72
    65
 73
     6
 40
31.75
 49
15.875
 74
     0
 49
-3.174999999999998
 74
     0
 49
3.174999999999998
 74
     0
 49
-3.174999999999998
 74
     0
 49
3.174999999999998
 74
     0
 49
-3.174999999999998
 74
     0
  0
LTYPE
  5
FF2
330
5
100
AcDbSymbolTableRecord
100
AcDbLinetypeTableRecord
  2
VERDECKT2
 70
     0
  3
Verdeckt (.5x) _ _ _ _ _ _ _ _ _ _ _ _ _ _ _ _ 
 72
    65
 73
     2
 40
4.762499999999998
 49
3.174999999999998
 74
     0
 49
-1.587499999999999
 74
     0
  0
ENDTAB
  0
TABLE
  2
LAYER
  5
2
330
0
100
AcDbSymbolTable
 70
    37
  0
LAYER
  5
F
330
2
100
AcDbSymbolTableRecord
100
AcDbLayerTableRecord
  2
0
 70
     0
 62
     7
  6
CONTINUOUS
370
    -3
390
CD1
  0
LAYER
  5
28
330
2
100
AcDbSymbolTableRecord
100
AcDbLayerTableRecord
  2
BEM1-10
 70
     0
 62
   164
  6
CONTINUOUS
370
    13
390
CD1
  0
LAYER
  5
AD
330
2
100
AcDbSymbolTableRecord
100
AcDbLayerTableRecord
  2
BEM1-1
 70
     0
 62
   164
  6
CONTINUOUS
370
    13
390
CD1
  0
LAYER
  5
AE
330
2
100
AcDbSymbolTableRecord
100
AcDbLayerTableRecord
  2
BEM1-20
 70
     0
 62
   164
  6
CONTINUOUS
370
    13
390
CD1
  0
LAYER
  5
AF
330
2
100
AcDbSymbolTableRecord
100
AcDbLayerTableRecord
  2
BEM1-25
 70
     0
 62
   164
  6
CONTINUOUS
370
    13
390
CD1
  0
LAYER
  5
B3
330
2
100
AcDbSymbolTableRecord
100
AcDbLayerTableRecord
  2
SCHNITTE
 70
     0
 62
   203
  6
CONTINUOUS
370
    15
390
CD1
  0
LAYER
  5
B4
330
2
100
AcDbSymbolTableRecord
100
AcDbLayerTableRecord
  2
BESCHLÄGE
 70
     0
 62
   134
  6
CONTINUOUS
370
    13
390
CD1
  0
LAYER
  5
B5
330
2
100
AcDbSymbolTableRecord
100
AcDbLayerTableRecord
  2
RAHMEN
 70
     0
 62
   250
  6
CONTINUOUS
370
    -3
390
CD1
  0
LAYER
  5
B6
330
2
100
AcDbSymbolTableRecord
100
AcDbLayerTableRecord
  2
UNSICHTBAR
 70
     0
 62
   253
  6
GESTRICHELT2
370
    15
390
CD1
  0
LAYER
  5
B7
330
2
100
AcDbSymbolTableRecord
100
AcDbLayerTableRecord
  2
WAND
 70
     0
 62
   250
  6
CONTINUOUS
370
    30
390
CD1
  0
LAYER
  5
B8
330
2
100
AcDbSymbolTableRecord
100
AcDbLayerTableRecord
  2
MÖBEL
 70
     0
 62
    32
  6
CONTINUOUS
370
    20
390
CD1
  0
LAYER
  5
D2
330
2
100
AcDbSymbolTableRecord
100
AcDbLayerTableRecord
  2
DEFPOINTS
 70
     0
 62
     7
  6
CONTINUOUS
290
     0
370
    -3
390
CD1
  0
LAYER
  5
145
330
2
100
AcDbSymbolTableRecord
100
AcDbLayerTableRecord
  2
SPIEGEL
 70
     0
 62
   150
  6
CONTINUOUS
370
    20
390
CD1
  0
LAYER
  5
32C
330
2
100
AcDbSymbolTableRecord
100
AcDbLayerTableRecord
  2
A_KOPF_5
 70
     0
 62
     7
  6
CONTINUOUS
370
    -3
390
CD1
  0
LAYER
  5
32D
330
2
100
AcDbSymbolTableRecord
100
AcDbLayerTableRecord
  2
_KOPF_RAHMEN
 70
     0
 62
     7
  6
CONTINUOUS
370
    -3
390
CD1
  0
LAYER
  5
442
330
2
100
AcDbSymbolTableRecord
100
AcDbLayerTableRecord
  2
ACRYLSTEIN
 70
     0
 62
     1
  6
CONTINUOUS
370
    20
390
CD1
  0
LAYER
  5
CDB
330
2
100
AcDbSymbolTableRecord
100
AcDbLayerTableRecord
  2
Achsen
 70
     0
 62
   203
  6
STRICHPUNKT
370
    15
390
CD1
  0
LAYER
  5
D5A
330
2
100
AcDbSymbolTableRecord
100
AcDbLayerTableRecord
  2
Glas
 70
     0
 62
     5
  6
CONTINUOUS
370
    20
390
CD1
  0
LAYER
  5
D6E
330
2
100
AcDbSymbolTableRecord
100
AcDbLayerTableRecord
  2
WST
 70
     0
 62
     5
  6
CONTINUOUS
370
    53
390
CD1
  0
LAYER
  5
D6F
330
2
100
AcDbSymbolTableRecord
100
AcDbLayerTableRecord
  2
VERDECKT
 70
     0
 62
     4
  6
ACAD_ISO02W100
370
    25
390
CD1
  0
LAYER
  5
D70
330
2
100
AcDbSymbolTableRecord
100
AcDbLayerTableRecord
  2
TEXT
 70
     0
 62
     1
  6
CONTINUOUS
370
    -3
390
CD1
  0
LAYER
  5
E29
330
2
100
AcDbSymbolTableRecord
100
AcDbLayerTableRecord
  2
AM_0
 70
     0
 62
     7
  6
CONTINUOUS
370
    50
390
CD1
  0
LAYER
  5
E2A
330
2
100
AcDbSymbolTableRecord
100
AcDbLayerTableRecord
  2
AM_BOR
 70
     0
 62
     7
  6
CONTINUOUS
370
    50
390
CD1
  0
LAYER
  5
E2B
330
2
100
AcDbSymbolTableRecord
100
AcDbLayerTableRecord
  2
LOGO
 70
     0
 62
   164
  6
CONTINUOUS
370
    -3
390
CD1
  0
LAYER
  5
E9C
330
2
100
AcDbSymbolTableRecord
100
AcDbLayerTableRecord
  2
BEM
 70
     0
 62
     1
  6
CONTINUOUS
370
    20
390
CD1
  0
LAYER
  5
F95
330
2
100
AcDbSymbolTableRecord
100
AcDbLayerTableRecord
  2
UK_AUSSCHNITT
 70
     0
 62
     7
  6
CONTINUOUS
370
    -3
390
CD1
  0
LAYER
  5
F96
330
2
100
AcDbSymbolTableRecord
100
AcDbLayerTableRecord
  2
HI MACS_BECKENAUSSCHNITT
 70
     0
 62
     7
  6
CONTINUOUS
370
    -3
390
CD1
  0
LAYER
  5
F97
330
2
100
AcDbSymbolTableRecord
100
AcDbLayerTableRecord
  2
FALZ_528
 70
     0
 62
     7
  6
CONTINUOUS
370
    -3
390
CD1
  0
LAYER
  5
FD1
330
2
100
AcDbSymbolTableRecord
100
AcDbLayerTableRecord
  2
Becken - Außenkontur
 70
     0
 62
     7
  6
CONTINUOUS
370
    -3
390
CD1
  0
LAYER
  5
FD2
330
2
100
AcDbSymbolTableRecord
100
AcDbLayerTableRecord
  2
Becken - Innenkontur
 70
     0
 62
     7
  6
CONTINUOUS
370
    -3
390
CD1
  0
LAYER
  5
FD3
330
2
100
AcDbSymbolTableRecord
100
AcDbLayerTableRecord
  2
Ausschnitt
 70
     0
 62
     1
  6
CONTINUOUS
370
    -3
390
CD1
  0
LAYER
  5
FF3
330
2
100
AcDbSymbolTableRecord
100
AcDbLayerTableRecord
  2
Becken innen
 70
     0
 62
     5
  6
CONTINUOUS
370
    53
390
CD1
  0
LAYER
  5
FF4
330
2
100
AcDbSymbolTableRecord
100
AcDbLayerTableRecord
  2
LG HI MACS_BECKENAUSSCHNITT
 70
     0
 62
     7
  6
CONTINUOUS
370
    -3
390
CD1
  0
LAYER
  5
FF5
330
2
100
AcDbSymbolTableRecord
100
AcDbLayerTableRecord
  2
FALZ_FUER_DecoBowl
 70
     0
 62
     7
  6
CONTINUOUS
370
    -3
390
CD1
  0
LAYER
  5
10E3
330
2
100
AcDbSymbolTableRecord
100
AcDbLayerTableRecord
  2
ORGINAL
 70
     0
 62
     7
  6
CONTINUOUS
370
    -3
390
CD1
  0
LAYER
  5
10E4
330
2
100
AcDbSymbolTableRecord
100
AcDbLayerTableRecord
  2
CORIAN_BECKENAUSSCHNITT
 70
     0
 62
     7
  6
CONTINUOUS
370
    -3
390
CD1
  0
LAYER
  5
10E5
330
2
100
AcDbSymbolTableRecord
100
AcDbLayerTableRecord
  2
FALZ_FUER_LAVANTO
 70
     0
 62
     7
  6
CONTINUOUS
370
    -3
390
CD1
  0
ENDTAB
  0
TABLE
  2
STYLE
  5
3
330
0
100
AcDbSymbolTable
 70
     8
  0
STYLE
  5
10
330
3
100
AcDbSymbolTableRecord
100
AcDbTextStyleTableRecord
  2
STANDARD
 70
     0
 40
0.0
 41
1.0
 50
0.0
 71
     0
 42
10.0
  3
txt
  4

  0
STYLE
  5
CCB
330
3
100
AcDbSymbolTableRecord
100
AcDbTextStyleTableRecord
  2
LOGO
 70
     0
 40
0.0
 41
1.0
 50
0.0
 71
     0
 42
10.0
  3
verdana.TTF
  4

1001
ACAD
1000
Verdana
1071
       34
  0
STYLE
  5
D71
330
3
100
AcDbSymbolTableRecord
100
AcDbTextStyleTableRecord
  2
Text R+P
 70
     0
 40
30.0
 41
1.0
 50
0.0
 71
     0
 42
30.0
  3
ARIAL.TTF
  4

1001
ACAD
1000
Arial
1071
       34
  0
STYLE
  5
E2C
330
3
100
AcDbSymbolTableRecord
100
AcDbTextStyleTableRecord
  2

 70
     1
 40
0.0
 41
1.0
 50
0.0
 71
     0
 42
2.5
  3
ltypeshp.shx
  4

  0
STYLE
  5
E2D
330
3
100
AcDbSymbolTableRecord
100
AcDbTextStyleTableRecord
  2
ACISOTS
 70
     0
 40
1.0
 41
1.0
 50
0.0
 71
     0
 42
2.5
  3
isocp.shx
  4

  0
STYLE
  5
E2E
330
3
100
AcDbSymbolTableRecord
100
AcDbTextStyleTableRecord
  2
ACISOGDT
 70
     0
 40
0.0
 41
1.0
 50
0.0
 71
     0
 42
2.5
  3
amgdt.shx
  4

  0
STYLE
  5
E2F
330
3
100
AcDbSymbolTableRecord
100
AcDbTextStyleTableRecord
  2
ROMANS
 70
     0
 40
0.0
 41
0.75
 50
0.0
 71
     0
 42
0.12
  3
romans
  4

  0
STYLE
  5
E30
330
3
100
AcDbSymbolTableRecord
100
AcDbTextStyleTableRecord
  2
ARIAL
 70
     0
 40
17.0
 41
1.0
 50
10.0
 71
     0
 42
17.0
  3
ARIAL.TTF
  4

1001
ACAD
1000
Arial
1071
       34
  0
ENDTAB
  0
TABLE
  2
VIEW
  5
6
330
0
100
AcDbSymbolTable
 70
     0
  0
ENDTAB
  0
TABLE
  2
UCS
  5
7
330
0
100
AcDbSymbolTable
 70
     0
  0
ENDTAB
  0
TABLE
  2
APPID
  5
9
330
0
100
AcDbSymbolTable
 70
     1
  0
APPID
  5
11
330
9
100
AcDbSymbolTableRecord
100
AcDbRegAppTableRecord
  2
ACAD
 70
     0
  0
ENDTAB
  0
TABLE
  2
DIMSTYLE
  5
A
330
0
100
AcDbSymbolTable
 70
    12
100
AcDbDimStyleTable
 71
     3
340
C3
340
2E
340
D60
  0
DIMSTYLE
105
1D
330
A
100
AcDbSymbolTableRecord
100
AcDbDimStyleTableRecord
  2
STANDARD
 70
     0
 41
2.5
 42
0.625
 43
3.75
 44
1.25
140
2.5
141
2.5
143
0.03937
147
0.625
340
10
  0
DIMSTYLE
105
2E
330
A
100
AcDbSymbolTableRecord
100
AcDbDimStyleTableRecord
  2
BEM1-1
 70
     0
 41
3.0
 42
3.0
 43
2.5
 44
3.0
 73
     0
 77
     3
140
5.0
141
2.0
143
0.03937
147
2.0
176
   164
177
   164
178
   164
179
     1
271
     1
272
     1
340
10
341
D5C
342
D5C
371
    -1
372
    -1
  0
DIMSTYLE
105
C3
330
A
100
AcDbSymbolTableRecord
100
AcDbDimStyleTableRecord
  2
BEM1-10
 70
     0
 41
10.0
 42
10.0
 43
5.0
 44
5.0
 73
     0
 77
     3
140
25.0
141
10.0
143
0.03937
147
4.0
176
   164
177
   164
178
   164
179
     1
271
     1
272
     1
340
10
341
D5C
342
D5C
371
    -1
372
    -1
  0
DIMSTYLE
105
D60
330
A
100
AcDbSymbolTableRecord
100
AcDbDimStyleTableRecord
  2
BEM1-20
 70
     0
 41
10.0
 42
15.0
 43
5.0
 44
5.0
 73
     0
 77
     3
140
35.0
141
10.0
143
0.03937
147
6.0
176
   164
177
   164
178
   164
179
     1
271
     1
272
     1
340
10
341
D5C
342
D5C
371
    -1
372
    -1
  0
DIMSTYLE
105
D72
330
A
100
AcDbSymbolTableRecord
100
AcDbDimStyleTableRecord
  2
Vorlage Sandro
 70
     0
 40
10.0
 41
2.5
 42
2.0
 43
3.75
 44
1.25
 73
     0
 74
     0
 77
     1
 78
     8
140
2.5
141
2.5
143
0.03937007874016
147
0.625
171
     3
172
     1
179
     1
271
     0
272
     0
274
     3
278
    44
283
     0
284
     8
288
     1
340
10
342
D5C
  0
DIMSTYLE
105
E31
330
A
100
AcDbSymbolTableRecord
100
AcDbDimStyleTableRecord
  2
ISO-25
 70
     0
 41
2.5
 42
0.625
 43
3.75
 44
1.25
 73
     0
 74
     0
 77
     1
 78
     8
140
2.5
141
2.5
143
0.03937007874016
147
0.625
171
     3
172
     1
271
     2
272
     2
274
     3
278
    44
283
     0
284
     8
340
10
  0
DIMSTYLE
105
E32
330
A
100
AcDbSymbolTableRecord
100
AcDbDimStyleTableRecord
  2
STANDARD$3
 70
     0
  4
"
 41
2.5
 42
1.0
 43
10.0
 44
1.0
 47
0.1
 48
0.1
 73
     0
 77
     1
 78
     8
 79
     2
140
3.5
141
0.0
143
0.0393701
146
0.71
147
1.5
176
   256
177
   256
178
     2
271
     2
272
     3
274
     4
283
     0
284
     8
288
     1
289
     0
340
10
371
    -1
372
    -1
  0
DIMSTYLE
105
E33
330
A
100
AcDbSymbolTableRecord
100
AcDbDimStyleTableRecord
  2
STANDARD$4
 70
     0
  4
"
 41
2.5
 42
1.0
 43
10.0
 44
1.0
 47
0.1
 48
0.1
 73
     0
 77
     1
 78
     8
 79
     2
140
3.5
141
0.0
143
0.0393701
146
0.71
147
1.5
176
   256
177
   256
178
     2
271
     2
272
     3
274
     4
283
     0
284
     8
288
     1
289
     0
340
10
371
    -1
372
    -1
  0
DIMSTYLE
105
E34
330
A
100
AcDbSymbolTableRecord
100
AcDbDimStyleTableRecord
  2
STANDARD$6
 70
     0
  4
"
 41
2.5
 42
1.0
 43
10.0
 44
1.0
 47
0.1
 48
0.1
 73
     0
 74
     0
 78
     8
 79
     2
140
3.5
141
0.0
143
0.0393701
146
0.71
147
1.5
172
     1
176
   256
177
   256
178
     2
271
     2
272
     3
274
     4
283
     0
284
     8
340
10
371
    -1
372
    -1
  0
DIMSTYLE
105
E35
330
A
100
AcDbSymbolTableRecord
100
AcDbDimStyleTableRecord
  2
STANDARD$7
 70
     0
  4
"
 41
2.5
 42
1.0
 43
10.0
 44
1.0
 47
0.1
 48
0.1
 73
     0
 74
     0
 77
     1
 78
     8
 79
     2
140
5.0
141
0.0
143
0.0393701
146
0.71
147
1.5
172
     1
176
   256
177
   256
178
     2
271
     2
272
     3
274
     4
283
     0
284
     8
340
10
371
    -1
372
    -1
  0
DIMSTYLE
105
E36
330
A
100
AcDbSymbolTableRecord
100
AcDbDimStyleTableRecord
  2
STANDARD$SF
 70
     0
  4
"
 41
2.5
 42
1.0
 43
10.0
 44
1.0
 47
0.1
 48
0.1
 73
     0
 74
     0
 75
     1
 76
     1
 77
     1
 78
     8
 79
     2
140
3.5
141
0.0
143
0.0393701
146
0.71
147
1.5
172
     1
176
   256
177
   256
178
     2
271
     2
272
     3
274
     4
283
     0
284
     8
340
10
371
    -1
372
    -1
  0
DIMSTYLE
105
E37
330
A
100
AcDbSymbolTableRecord
100
AcDbDimStyleTableRecord
  2
STANDARD$SH
 70
     0
  4
"
 41
2.5
 42
1.0
 43
10.0
 44
1.0
 47
0.1
 48
0.1
 73
     0
 74
     0
 75
     1
 76
     1
 77
     1
 78
     8
 79
     2
140
3.5
141
0.0
143
0.0393701
144
2.0
146
0.71
147
1.5
172
     1
173
     1
176
   256
177
   256
178
     2
271
     2
272
     3
274
     4
283
     0
284
     8
340
10
343
E18
371
    -1
372
    -1
  0
ENDTAB
  0
TABLE
  2
BLOCK_RECORD
  5
1
330
0
100
AcDbSymbolTable
 70
    21
  0
BLOCK_RECORD
  5
19
330
1
100
AcDbSymbolTableRecord
100
AcDbBlockTableRecord
  2
*MODEL_SPACE
340
CD6
  0
BLOCK_RECORD
  5
112D
330
1
100
AcDbSymbolTableRecord
100
AcDbBlockTableRecord
  2
*Paper_Space
340
112E
  0
BLOCK_RECORD
  5
D5C
330
1
100
AcDbSymbolTableRecord
100
AcDbBlockTableRecord
  2
_Oblique
340
0
102
{BLKREFS
331
DB7
331
DB8
331
DC4
331
DC5
331
DD1
331
DD2
331
DDE
331
DDF
331
DEB
331
DEC
331
E0C
331
F30
331
F31
331
F39
331
F3A
331
F42
331
F43
331
F4B
331
F5A
331
F5B
331
F6C
331
F6D
331
F82
331
FB4
331
FB5
331
1101
331
1102
102
}
  0
BLOCK_RECORD
  5
D61
330
1
100
AcDbSymbolTableRecord
100
AcDbBlockTableRecord
  2
_ArchTick
340
0
  0
BLOCK_RECORD
  5
DB3
330
1
100
AcDbSymbolTableRecord
100
AcDbBlockTableRecord
  2
*D2
340
0
  0
BLOCK_RECORD
  5
DC0
330
1
100
AcDbSymbolTableRecord
100
AcDbBlockTableRecord
  2
*D3
340
0
  0
BLOCK_RECORD
  5
DCD
330
1
100
AcDbSymbolTableRecord
100
AcDbBlockTableRecord
  2
*D4
340
0
  0
BLOCK_RECORD
  5
DDA
330
1
100
AcDbSymbolTableRecord
100
AcDbBlockTableRecord
  2
*D5
340
0
  0
BLOCK_RECORD
  5
DE7
330
1
100
AcDbSymbolTableRecord
100
AcDbBlockTableRecord
  2
*D6
340
0
  0
BLOCK_RECORD
  5
DFD
330
1
100
AcDbSymbolTableRecord
100
AcDbBlockTableRecord
  2
*D7
340
0
  0
BLOCK_RECORD
  5
E18
330
1
100
AcDbSymbolTableRecord
100
AcDbBlockTableRecord
  2
GENAXEH
340
0
  0
BLOCK_RECORD
  5
E38
102
{ACAD_XDICTIONARY
360
E7A
102
}
330
1
100
AcDbSymbolTableRecord
100
AcDbBlockTableRecord
  2
A4_H.dwg
340
0
102
{BLKREFS
331
E7D
331
1164
102
}
1001
ACAD
1000
DesignCenter Data
1002
{
1070
     1
1070
     4
1002
}
  0
BLOCK_RECORD
  5
ED6
330
1
100
AcDbSymbolTableRecord
100
AcDbBlockTableRecord
  2
*D11
340
0
  0
BLOCK_RECORD
  5
EE2
330
1
100
AcDbSymbolTableRecord
100
AcDbBlockTableRecord
  2
*D12
340
0
  0
BLOCK_RECORD
  5
EEE
330
1
100
AcDbSymbolTableRecord
100
AcDbBlockTableRecord
  2
*D13
340
0
  0
BLOCK_RECORD
  5
EFA
330
1
100
AcDbSymbolTableRecord
100
AcDbBlockTableRecord
  2
*D14
340
0
  0
BLOCK_RECORD
  5
F06
330
1
100
AcDbSymbolTableRecord
100
AcDbBlockTableRecord
  2
*D15
340
0
  0
BLOCK_RECORD
  5
F12
330
1
100
AcDbSymbolTableRecord
100
AcDbBlockTableRecord
  2
*D16
340
0
  0
BLOCK_RECORD
  5
F73
330
1
100
AcDbSymbolTableRecord
100
AcDbBlockTableRecord
  2
*D17
340
0
  0
BLOCK_RECORD
  5
FB0
330
1
100
AcDbSymbolTableRecord
100
AcDbBlockTableRecord
  2
*D18
340
0
  0
BLOCK_RECORD
  5
10FD
330
1
100
AcDbSymbolTableRecord
100
AcDbBlockTableRecord
  2
*D19
340
0
  0
BLOCK_RECORD
  5
D3F
330
1
100
AcDbSymbolTableRecord
100
AcDbBlockTableRecord
  2
*Paper_Space20
340
D40
  0
ENDTAB
  0
ENDSEC
  0
SECTION
  2
BLOCKS
  0
BLOCK
  5
1A
330
19
100
AcDbEntity
  8
0
100
AcDbBlockBegin
  2
*MODEL_SPACE
 70
     0
 10
0.0
 20
0.0
 30
0.0
  3
*MODEL_SPACE
  1

  0
ENDBLK
  5
1B
330
19
100
AcDbEntity
  8
0
100
AcDbBlockEnd
  0
BLOCK
  5
112F
330
112D
100
AcDbEntity
 67
     1
  8
0
100
AcDbBlockBegin
  2
*Paper_Space
 70
     0
 10
0.0
 20
0.0
 30
0.0
  3
*Paper_Space
  1

  0
ENDBLK
  5
1130
330
112D
100
AcDbEntity
 67
     1
  8
0
100
AcDbBlockEnd
  0
BLOCK
  5
D5E
330
D5C
100
AcDbEntity
  8
0
100
AcDbBlockBegin
  2
_Oblique
 70
     0
 10
0.0
 20
0.0
 30
0.0
  3
_Oblique
  1

  0
LINE
  5
D5D
330
D5C
100
AcDbEntity
  8
0
  6
ByBlock
 62
     0
370
    -2
100
AcDbLine
 10
-0.5
 20
-0.5
 30
0.0
 11
0.5
 21
0.5
 31
0.0
  0
ENDBLK
  5
D5F
330
D5C
100
AcDbEntity
  8
0
100
AcDbBlockEnd
  0
BLOCK
  5
D63
330
D61
100
AcDbEntity
  8
0
100
AcDbBlockBegin
  2
_ArchTick
 70
     0
 10
0.0
 20
0.0
 30
0.0
  3
_ArchTick
  1

  0
LWPOLYLINE
  5
D62
330
D61
100
AcDbEntity
  8
0
  6
ByBlock
 62
     0
100
AcDbPolyline
 90
        2
 70
     0
 43
0.15
 10
-0.5
 20
-0.5
 10
0.5
 20
0.5
  0
ENDBLK
  5
D64
330
D61
100
AcDbEntity
  8
0
100
AcDbBlockEnd
  0
BLOCK
  5
DBD
330
DB3
100
AcDbEntity
  8
0
100
AcDbBlockBegin
  2
*D2
 70
     1
 10
0.0
 20
0.0
 30
0.0
  3
*D2
  1

  0
LINE
  5
DB4
330
DB3
100
AcDbEntity
  8
BEM1-10
 62
   164
100
AcDbLine
 10
2912.333052433803
 20
7829.415998861818
 30
0.0
 11
2912.333052433803
 21
7963.650706877206
 31
0.0
  0
LINE
  5
DB5
330
DB3
100
AcDbEntity
  8
BEM1-10
 62
   164
100
AcDbLine
 10
2756.333052433804
 20
7829.415998861818
 30
0.0
 11
2756.333052433804
 21
7963.650706877206
 31
0.0
  0
LINE
  5
DB6
330
DB3
100
AcDbEntity
  8
BEM1-10
 62
   164
100
AcDbLine
 10
2912.333052433803
 20
7958.650706877206
 30
0.0
 11
2756.333052433804
 21
7958.650706877206
 31
0.0
  0
INSERT
  5
DB7
330
DB3
100
AcDbEntity
  8
BEM1-10
 62
   164
100
AcDbBlockReference
  2
_Oblique
 10
2912.333052433803
 20
7958.650706877206
 30
0.0
 41
10.0
 42
10.0
 43
10.0
  0
INSERT
  5
DB8
330
DB3
100
AcDbEntity
  8
BEM1-10
 62
   164
100
AcDbBlockReference
  2
_Oblique
 10
2756.333052433804
 20
7958.650706877206
 30
0.0
 41
10.0
 42
10.0
 43
10.0
 50
180.0
  0
MTEXT
  5
DB9
330
DB3
100
AcDbEntity
  8
BEM1-10
 62
   164
100
AcDbMText
 10
2834.333052433803
 20
7975.150706877204
 30
0.0
 40
25.0
 41
0.0
 71
     5
 72
     1
  1
\A1;156.0
 73
     1
 44
1.0
1001
ACAD
1000
MTEXTBEGIN
1070
    73
1070
     1
1070
    44
1040
1.0
1070
    74
1070
     0
1000
MTEXTEND
  0
POINT
  5
DBA
330
DB3
100
AcDbEntity
  8
DEFPOINTS
 62
     0
100
AcDbPoint
 10
2912.333052433803
 20
7819.415998861818
 30
0.0
  0
POINT
  5
DBB
330
DB3
100
AcDbEntity
  8
DEFPOINTS
 62
     0
100
AcDbPoint
 10
2756.333052433804
 20
7819.415998861818
 30
0.0
  0
POINT
  5
DBC
330
DB3
100
AcDbEntity
  8
DEFPOINTS
 62
     0
100
AcDbPoint
 10
2756.333052433804
 20
7958.650706877206
 30
0.0
  0
ENDBLK
  5
DBE
330
DB3
100
AcDbEntity
  8
0
100
AcDbBlockEnd
  0
BLOCK
  5
DCA
330
DC0
100
AcDbEntity
  8
0
100
AcDbBlockBegin
  2
*D3
 70
     1
 10
0.0
 20
0.0
 30
0.0
  3
*D3
  1

  0
LINE
  5
DC1
330
DC0
100
AcDbEntity
  8
BEM1-10
 62
   164
100
AcDbLine
 10
2924.333052433803
 20
7829.415998861818
 30
0.0
 11
2924.333052433803
 21
8026.843307674367
 31
0.0
  0
LINE
  5
DC2
330
DC0
100
AcDbEntity
  8
BEM1-10
 62
   164
100
AcDbLine
 10
2744.333052433803
 20
7829.415998861816
 30
0.0
 11
2744.333052433803
 21
8026.843307674367
 31
0.0
  0
LINE
  5
DC3
330
DC0
100
AcDbEntity
  8
BEM1-10
 62
   164
100
AcDbLine
 10
2924.333052433803
 20
8021.843307674366
 30
0.0
 11
2744.333052433803
 21
8021.843307674366
 31
0.0
  0
INSERT
  5
DC4
330
DC0
100
AcDbEntity
  8
BEM1-10
 62
   164
100
AcDbBlockReference
  2
_Oblique
 10
2924.333052433803
 20
8021.843307674366
 30
0.0
 41
10.0
 42
10.0
 43
10.0
  0
INSERT
  5
DC5
330
DC0
100
AcDbEntity
  8
BEM1-10
 62
   164
100
AcDbBlockReference
  2
_Oblique
 10
2744.333052433803
 20
8021.843307674366
 30
0.0
 41
10.0
 42
10.0
 43
10.0
 50
180.0
  0
MTEXT
  5
DC6
330
DC0
100
AcDbEntity
  8
BEM1-10
 62
   164
100
AcDbMText
 10
2834.333052433803
 20
8038.343307674365
 30
0.0
 40
25.0
 41
0.0
 71
     5
 72
     1
  1
\A1;180.0
 73
     1
 44
1.0
1001
ACAD
1000
MTEXTBEGIN
1070
    73
1070
     1
1070
    44
1040
1.0
1070
    74
1070
     0
1000
MTEXTEND
  0
POINT
  5
DC7
330
DC0
100
AcDbEntity
  8
DEFPOINTS
 62
     0
100
AcDbPoint
 10
2924.333052433803
 20
7819.415998861818
 30
0.0
  0
POINT
  5
DC8
330
DC0
100
AcDbEntity
  8
DEFPOINTS
 62
     0
100
AcDbPoint
 10
2744.333052433803
 20
7819.415998861817
 30
0.0
  0
POINT
  5
DC9
330
DC0
100
AcDbEntity
  8
DEFPOINTS
 62
     0
100
AcDbPoint
 10
2744.333052433803
 20
8021.843307674366
 30
0.0
  0
ENDBLK
  5
DCB
330
DC0
100
AcDbEntity
  8
0
100
AcDbBlockEnd
  0
BLOCK
  5
DD7
330
DCD
100
AcDbEntity
  8
0
100
AcDbBlockBegin
  2
*D4
 70
     1
 10
0.0
 20
0.0
 30
0.0
  3
*D4
  1

  0
LINE
  5
DCE
330
DCD
100
AcDbEntity
  8
BEM1-10
 62
   164
100
AcDbLine
 10
2824.333052433803
 20
7870.415998861817
 30
0.0
 11
2649.505303788427
 21
7870.415998861817
 31
0.0
  0
LINE
  5
DCF
330
DCD
100
AcDbEntity
  8
BEM1-10
 62
   164
100
AcDbLine
 10
2824.333052433803
 20
7566.415998861818
 30
0.0
 11
2649.505303788427
 21
7566.415998861818
 31
0.0
  0
LINE
  5
DD0
330
DCD
100
AcDbEntity
  8
BEM1-10
 62
   164
100
AcDbLine
 10
2654.505303788428
 20
7870.415998861817
 30
0.0
 11
2654.505303788428
 21
7566.415998861818
 31
0.0
  0
INSERT
  5
DD1
330
DCD
100
AcDbEntity
  8
BEM1-10
 62
   164
100
AcDbBlockReference
  2
_Oblique
 10
2654.505303788428
 20
7870.415998861817
 30
0.0
 41
10.0
 42
10.0
 43
10.0
 50
90.0
  0
INSERT
  5
DD2
330
DCD
100
AcDbEntity
  8
BEM1-10
 62
   164
100
AcDbBlockReference
  2
_Oblique
 10
2654.505303788428
 20
7566.415998861818
 30
0.0
 41
10.0
 42
10.0
 43
10.0
 50
270.0
  0
MTEXT
  5
DD3
330
DCD
100
AcDbEntity
  8
BEM1-10
 62
   164
100
AcDbMText
 10
2638.005303788426
 20
7718.415998861819
 30
0.0
 40
25.0
 41
0.0
 71
     5
 72
     1
  1
\A1;304.0
 11
0.0000000000000001
 21
1.0
 31
0.0
 73
     1
 44
1.0
1001
ACAD
1000
MTEXTBEGIN
1070
    73
1070
     1
1070
    44
1040
1.0
1070
    74
1070
     0
1000
MTEXTEND
  0
POINT
  5
DD4
330
DCD
100
AcDbEntity
  8
DEFPOINTS
 62
     0
100
AcDbPoint
 10
2834.333052433803
 20
7870.415998861817
 30
0.0
  0
POINT
  5
DD5
330
DCD
100
AcDbEntity
  8
DEFPOINTS
 62
     0
100
AcDbPoint
 10
2834.333052433803
 20
7566.415998861818
 30
0.0
  0
POINT
  5
DD6
330
DCD
100
AcDbEntity
  8
DEFPOINTS
 62
     0
100
AcDbPoint
 10
2654.505303788428
 20
7566.415998861818
 30
0.0
  0
ENDBLK
  5
DD8
330
DCD
100
AcDbEntity
  8
0
100
AcDbBlockEnd
  0
BLOCK
  5
DE4
330
DDA
100
AcDbEntity
  8
0
100
AcDbBlockBegin
  2
*D5
 70
     1
 10
0.0
 20
0.0
 30
0.0
  3
*D5
  1

  0
LINE
  5
DDB
330
DDA
100
AcDbEntity
  8
BEM1-10
 62
   164
100
AcDbLine
 10
2824.333052433803
 20
7882.415998861818
 30
0.0
 11
2599.468377049961
 21
7882.415998861818
 31
0.0
  0
LINE
  5
DDC
330
DDA
100
AcDbEntity
  8
BEM1-10
 62
   164
100
AcDbLine
 10
2824.333052433804
 20
7554.415998861816
 30
0.0
 11
2599.468377049961
 21
7554.415998861816
 31
0.0
  0
LINE
  5
DDD
330
DDA
100
AcDbEntity
  8
BEM1-10
 62
   164
100
AcDbLine
 10
2604.468377049961
 20
7882.415998861818
 30
0.0
 11
2604.468377049961
 21
7554.415998861816
 31
0.0
  0
INSERT
  5
DDE
330
DDA
100
AcDbEntity
  8
BEM1-10
 62
   164
100
AcDbBlockReference
  2
_Oblique
 10
2604.468377049961
 20
7882.415998861818
 30
0.0
 41
10.0
 42
10.0
 43
10.0
 50
90.0
  0
INSERT
  5
DDF
330
DDA
100
AcDbEntity
  8
BEM1-10
 62
   164
100
AcDbBlockReference
  2
_Oblique
 10
2604.468377049961
 20
7554.415998861816
 30
0.0
 41
10.0
 42
10.0
 43
10.0
 50
270.0
  0
MTEXT
  5
DE0
330
DDA
100
AcDbEntity
  8
BEM1-10
 62
   164
100
AcDbMText
 10
2587.968377049959
 20
7718.415998861819
 30
0.0
 40
25.0
 41
0.0
 71
     5
 72
     1
  1
\A1;328.0
 11
0.0000000000000001
 21
1.0
 31
0.0
 73
     1
 44
1.0
1001
ACAD
1000
MTEXTBEGIN
1070
    73
1070
     1
1070
    44
1040
1.0
1070
    74
1070
     0
1000
MTEXTEND
  0
POINT
  5
DE1
330
DDA
100
AcDbEntity
  8
DEFPOINTS
 62
     0
100
AcDbPoint
 10
2834.333052433803
 20
7882.415998861818
 30
0.0
  0
POINT
  5
DE2
330
DDA
100
AcDbEntity
  8
DEFPOINTS
 62
     0
100
AcDbPoint
 10
2834.333052433804
 20
7554.415998861816
 30
0.0
  0
POINT
  5
DE3
330
DDA
100
AcDbEntity
  8
DEFPOINTS
 62
     0
100
AcDbPoint
 10
2604.468377049961
 20
7554.415998861816
 30
0.0
  0
ENDBLK
  5
DE5
330
DDA
100
AcDbEntity
  8
0
100
AcDbBlockEnd
  0
BLOCK
  5
DF1
330
DE7
100
AcDbEntity
  8
0
100
AcDbBlockBegin
  2
*D6
 70
     1
 10
0.0
 20
0.0
 30
0.0
  3
*D6
  1

  0
LINE
  5
DE8
330
DE7
100
AcDbEntity
  8
BEM1-10
 62
   164
100
AcDbLine
 10
2824.333052433803
 20
7870.415998861817
 30
0.0
 11
2705.581168410502
 21
7870.415998861817
 31
0.0
  0
LINE
  5
DE9
330
DE7
100
AcDbEntity
  8
BEM1-10
 62
   164
100
AcDbLine
 10
2824.333052433804
 20
7782.915998861817
 30
0.0
 11
2705.581168410502
 21
7782.915998861817
 31
0.0
  0
LINE
  5
DEA
330
DE7
100
AcDbEntity
  8
BEM1-10
 62
   164
100
AcDbLine
 10
2710.581168410502
 20
7870.415998861817
 30
0.0
 11
2710.581168410502
 21
7782.915998861817
 31
0.0
  0
INSERT
  5
DEB
330
DE7
100
AcDbEntity
  8
BEM1-10
 62
   164
100
AcDbBlockReference
  2
_Oblique
 10
2710.581168410502
 20
7870.415998861817
 30
0.0
 41
10.0
 42
10.0
 43
10.0
 50
90.0
  0
INSERT
  5
DEC
330
DE7
100
AcDbEntity
  8
BEM1-10
 62
   164
100
AcDbBlockReference
  2
_Oblique
 10
2710.581168410502
 20
7782.915998861817
 30
0.0
 41
10.0
 42
10.0
 43
10.0
 50
270.0
  0
MTEXT
  5
DED
330
DE7
100
AcDbEntity
  8
BEM1-10
 62
   164
100
AcDbMText
 10
2694.0811684105
 20
7826.665998861819
 30
0.0
 40
25.0
 41
0.0
 71
     5
 72
     1
  1
\A1;87.5
 11
0.0000000000000001
 21
1.0
 31
0.0
 73
     1
 44
1.0
1001
ACAD
1000
MTEXTBEGIN
1070
    73
1070
     1
1070
    44
1040
1.0
1070
    74
1070
     0
1000
MTEXTEND
  0
POINT
  5
DEE
330
DE7
100
AcDbEntity
  8
DEFPOINTS
 62
     0
100
AcDbPoint
 10
2834.333052433803
 20
7870.415998861817
 30
0.0
  0
POINT
  5
DEF
330
DE7
100
AcDbEntity
  8
DEFPOINTS
 62
     0
100
AcDbPoint
 10
2834.333052433804
 20
7782.915998861817
 30
0.0
  0
POINT
  5
DF0
330
DE7
100
AcDbEntity
  8
DEFPOINTS
 62
     0
100
AcDbPoint
 10
2710.581168410502
 20
7782.915998861817
 30
0.0
  0
ENDBLK
  5
DF2
330
DE7
100
AcDbEntity
  8
0
100
AcDbBlockEnd
  0
BLOCK
  5
E03
330
DFD
100
AcDbEntity
  8
0
100
AcDbBlockBegin
  2
*D7
 70
     1
 10
0.0
 20
0.0
 30
0.0
  3
*D7
  1

  0
LINE
  5
E0A
330
DFD
100
AcDbEntity
  8
BEM1-10
 62
   164
100
AcDbLine
 10
2800.5050762075
 20
7638.868441804594
 30
0.0
 11
2909.429591775513
 21
7600.453602116347
 31
0.0
  0
MTEXT
  5
E0B
330
DFD
100
AcDbEntity
  8
BEM1-10
 62
   164
100
AcDbMText
 10
2851.024474244113
 20
7638.547627187782
 30
0.0
 40
25.0
 41
0.0
 71
     5
 72
     1
  1
\A1;R51.0
 11
0.9430693988572551
 21
-0.3325960146168553
 31
0.0
 73
     1
 44
1.0
1001
ACAD
1000
MTEXTBEGIN
1070
    73
1070
     1
1070
    44
1040
1.0
1070
    74
1070
     0
1000
MTEXTEND
  0
INSERT
  5
E0C
330
DFD
100
AcDbEntity
  8
BEM1-10
 62
   164
100
AcDbBlockReference
  2
_Oblique
 10
2909.429591775513
 20
7600.453602116347
 30
0.0
 41
10.0
 42
10.0
 43
10.0
 50
340.573581031992
  0
POINT
  5
E0D
330
DFD
100
AcDbEntity
  8
DEFPOINTS
 62
     0
100
AcDbPoint
 10
2909.429591775513
 20
7600.453602116347
 30
0.0
  0
POINT
  5
E0E
330
DFD
100
AcDbEntity
  8
DEFPOINTS
 62
     0
100
AcDbPoint
 10
2861.333052433801
 20
7617.415998861803
 30
0.0
  0
ENDBLK
  5
E04
330
DFD
100
AcDbEntity
  8
0
100
AcDbBlockEnd
  0
BLOCK
  5
E19
330
E18
100
AcDbEntity
  8
0
100
AcDbBlockBegin
  2
GENAXEH
 70
     0
 10
0.0
 20
0.0
 30
0.0
  3
GENAXEH
  1

  0
LINE
  5
E1A
330
E18
100
AcDbEntity
  8
AM_0
100
AcDbLine
 10
-1.0
 20
0.0
 30
0.0
 11
1.0
 21
0.0
 31
0.0
  0
ENDBLK
  5
E1B
330
E18
100
AcDbEntity
  8
0
100
AcDbBlockEnd
  0
BLOCK
  5
E7B
330
E38
100
AcDbEntity
  8
0
100
AcDbBlockBegin
  2
A4_H.dwg
 70
     2
 10
0.0
 20
0.0
 30
0.0
  3
A4_H.dwg
  1

  0
LINE
  5
1137
330
E38
100
AcDbEntity
  8
RAHMEN
100
AcDbLine
 10
5.0
 20
281.0
 30
0.0
 11
5.0
 21
0.0
 31
0.0
  0
LINE
  5
1138
330
E38
100
AcDbEntity
  8
RAHMEN
100
AcDbLine
 10
195.0
 20
0.0
 30
0.0
 11
195.0
 21
281.0
 31
0.0
  0
LINE
  5
1139
330
E38
100
AcDbEntity
  8
AM_BOR
100
AcDbLine
 10
5.0
 20
0.0
 30
0.0
 11
195.0
 21
0.0
 31
0.0
  0
LINE
  5
113A
330
E38
100
AcDbEntity
  8
RAHMEN
100
AcDbLine
 10
5.0
 20
281.0
 30
0.0
 11
195.0
 21
281.0
 31
0.0
  0
LINE
  5
113B
330
E38
100
AcDbEntity
  8
RAHMEN
100
AcDbLine
 10
97.49999999999998
 20
0.0
 30
0.0
 11
195.0
 21
0.0
 31
0.0
  0
ATTDEF
  5
113C
330
E38
100
AcDbEntity
  8
RAHMEN
100
AcDbText
 10
139.9012711605863
 20
6.916792940921226
 30
0.0
 40
1.476068289234091
  1

100
AcDbAttributeDefinition
  3

  2
REVDATE
 70
     8
  0
ATTDEF
  5
113D
330
E38
100
AcDbEntity
  8
RAHMEN
100
AcDbText
 10
167.7292969851413
 20
7.151134982195202
 30
0.0
 40
1.476068289234091
  1

100
AcDbAttributeDefinition
  3

  2
USER
 70
     8
  0
TEXT
  5
113E
330
E38
100
AcDbEntity
  8
RAHMEN
100
AcDbText
 10
139.9702930377142
 20
10.33217238559447
 30
0.0
 40
1.628718135901551
  1
Datum:
100
AcDbText
  0
TEXT
  5
113F
330
E38
100
AcDbEntity
  8
RAHMEN
100
AcDbText
 10
167.5595961854579
 20
10.33217238559447
 30
0.0
 40
1.628718135901551
  1
Zeichner:
100
AcDbText
  0
TEXT
  5
1140
330
E38
100
AcDbEntity
  8
RAHMEN
100
AcDbText
 10
97.9944490486681
 20
10.36596480575008
 30
0.0
 40
1.628718135901551
  1
Datei:
100
AcDbText
  0
ATTDEF
  5
1141
330
E38
100
AcDbEntity
  8
RAHMEN
100
AcDbText
 10
97.92542717154001
 20
7.498682143825192
 30
0.0
 40
1.476068289234091
  1

100
AcDbAttributeDefinition
  3

  2
FNAME
 70
     8
  0
TEXT
  5
1142
330
E38
100
AcDbEntity
  8
RAHMEN
100
AcDbText
 10
98.12785695062766
 20
4.237617658230078
 30
0.0
 40
1.628718135901551
  1
Auftr.Nr.:
100
AcDbText
  0
TEXT
  5
1143
330
E38
100
AcDbEntity
  8
RAHMEN
100
AcDbText
 10
140.1037009396739
 20
4.120446637594966
 30
0.0
 40
1.628718135901551
  1
MSt.:
100
AcDbText
  0
TEXT
  5
1144
330
E38
100
AcDbEntity
  8
RAHMEN
100
AcDbText
 10
167.6934544794731
 20
4.020316848809443
 30
0.0
 40
1.628718135901551
  1
MSt.:
100
AcDbText
  0
LINE
  5
1145
330
E38
100
AcDbEntity
  8
RAHMEN
100
AcDbLine
 10
139.4758439890462
 20
12.31578947368422
 30
0.0
 11
139.4758439890462
 21
6.157894736842138
 31
0.0
  0
ATTDEF
  5
1146
330
E38
100
AcDbEntity
  8
RAHMEN
100
AcDbText
 10
98.11763385388472
 20
1.254680691921578
 30
0.0
 40
1.598969081811834
  1
???
100
AcDbAttributeDefinition
  3
Auftr.Nr.:
  2
TEXT4
 70
     0
  0
ATTDEF
  5
1147
330
E38
100
AcDbEntity
  8
RAHMEN
100
AcDbText
 10
139.9365136052734
 20
0.8237646204792099
 30
0.0
 40
1.598969081811834
  1
1:1
100
AcDbAttributeDefinition
  3
MSt.:
  2
TEXT5
 70
     0
  0
ATTDEF
  5
1148
330
E38
100
AcDbEntity
  8
RAHMEN
100
AcDbText
 10
167.5262671450728
 20
0.5667526156229315
 30
0.0
 40
1.598969081811834
  1
1:10
100
AcDbAttributeDefinition
  3
MSt.:
  2
TEXT6
 70
     0
  0
LINE
  5
1149
330
E38
100
AcDbEntity
  8
RAHMEN
100
AcDbLine
 10
167.1719741754449
 20
6.157894736842138
 30
0.0
 11
167.1719741754449
 21
0.0
 31
0.0
  0
ATTDEF
  5
114A
330
E38
100
AcDbEntity
  8
RAHMEN
100
AcDbText
 10
97.8287739780711
 20
13.29614296459522
 30
0.0
 40
1.598969081811834
  1
???
100
AcDbAttributeDefinition
  3
Ausführung:
  2
TEXT3
 70
     0
  0
ATTDEF
  5
114B
330
E38
100
AcDbEntity
  8
RAHMEN
100
AcDbText
 10
97.8287739780711
 20
19.33519746077308
 30
0.0
 40
1.598969081811834
  1
???
100
AcDbAttributeDefinition
  3
Art der Arbeit:
  2
TEXT2
 70
     0
  0
ATTDEF
  5
114C
330
E38
100
AcDbEntity
  8
RAHMEN
100
AcDbText
 10
97.98573821572844
 20
25.4533906928485
 30
0.0
 40
1.598969081811834
  1
???
100
AcDbAttributeDefinition
  3
Kunde:
  2
TEXT1
 70
     0
  0
LINE
  5
114D
330
E38
100
AcDbEntity
  8
RAHMEN
100
AcDbLine
 10
194.9999999999999
 20
18.47368421052635
 30
0.0
 11
97.3681043618437
 21
18.47368421052635
 31
0.0
  0
LINE
  5
114E
330
E38
100
AcDbEntity
  8
RAHMEN
100
AcDbLine
 10
194.9999999999999
 20
24.63157894736844
 30
0.0
 11
97.3681043618437
 21
24.63157894736844
 31
0.0
  0
LINE
  5
114F
330
E38
100
AcDbEntity
  8
RAHMEN
100
AcDbLine
 10
195.0
 20
30.78947368421052
 30
0.0
 11
97.49999999999998
 21
30.78947368421055
 31
0.0
  0
TEXT
  5
1150
330
E38
100
AcDbEntity
  8
RAHMEN
100
AcDbText
 10
97.99596131247151
 20
16.19995088567321
 30
0.0
 40
1.628718135901551
  1
Ausführung:
100
AcDbText
  0
TEXT
  5
1151
330
E38
100
AcDbEntity
  8
RAHMEN
100
AcDbText
 10
97.83899707481404
 20
22.31813442708156
 30
0.0
 40
1.628718135901551
  1
Art der Arbeit:
100
AcDbText
  0
TEXT
  5
1152
330
E38
100
AcDbEntity
  8
RAHMEN
100
AcDbText
 10
97.99596131247151
 20
28.436327659157
 30
0.0
 40
1.628718135901551
  1
Kunde:
100
AcDbText
  0
LINE
  5
1153
330
E38
100
AcDbEntity
  8
RAHMEN
100
AcDbLine
 10
97.49999999999998
 20
30.78947368421055
 30
0.0
 11
97.49999999999998
 21
0.0
 31
0.0
  0
LINE
  5
1154
330
E38
100
AcDbEntity
  8
RAHMEN
100
AcDbLine
 10
139.4758439890462
 20
6.157894736842138
 30
0.0
 11
97.3681043618437
 21
6.157894736842138
 31
0.0
  0
LINE
  5
1155
330
E38
100
AcDbEntity
  8
RAHMEN
100
AcDbLine
 10
139.4758439890462
 20
6.157894736842138
 30
0.0
 11
139.4758439890462
 21
0.0
 31
0.0
  0
LINE
  5
1156
330
E38
100
AcDbEntity
  8
RAHMEN
100
AcDbLine
 10
195.0
 20
6.157894736842152
 30
0.0
 11
139.3439483508899
 21
6.157894736842138
 31
0.0
  0
LINE
  5
1157
330
E38
100
AcDbEntity
  8
RAHMEN
100
AcDbLine
 10
194.9999999999999
 20
12.31578947368422
 30
0.0
 11
97.49999999999998
 21
12.31578947368422
 31
0.0
  0
LINE
  5
1158
330
E38
100
AcDbEntity
  8
RAHMEN
100
AcDbLine
 10
167.1719741754449
 20
12.31578947368422
 30
0.0
 11
167.1719741754449
 21
6.157894736842138
 31
0.0
  0
LINE
  5
1159
330
E38
100
AcDbEntity
  8
0
100
AcDbLine
 10
195.0
 20
30.78947368421055
 30
0.0
 11
195.0
 21
0.0
 31
0.0
  0
LINE
  5
115A
330
E38
100
AcDbEntity
  8
RAHMEN
100
AcDbLine
 10
5.0
 20
255.9329567986091
 30
0.0
 11
105.4022853194974
 21
255.9329567986091
 31
0.0
  0
MTEXT
  5
115B
330
E38
100
AcDbEntity
  8
RAHMEN
100
AcDbMText
 10
11.15696916645402
 20
279.0230124280853
 30
0.0
 40
2.5
 41
90.70833333333332
 71
     1
 72
     5
  1
{\fFrutiger Linotype|b0|i0|c0|p34;Diese Zeichung ist geistiges Eigentum der kläusler acrylstein ag. Ohne unsere schriftliche Genehmigung darf diese weder kopiert, vervielfältigt, noch Konkurrenzfirmen zugänglich gemacht werden (Art. 12 B.G.)}
 73
     1
 44
1.0
1001
ACAD
1000
MTEXTBEGIN
1070
    73
1070
     1
1070
    44
1040
1.0
1070
    74
1070
     0
1000
MTEXTEND
  0
HATCH
  5
115C
330
E38
100
AcDbEntity
  8
AM_0
 62
   242
100
AcDbHatch
 10
0.0
 20
0.0
 30
0.0
210
0.0
220
0.0
230
1.0
  2
ANSI31
 70
     0
 71
     0
 91
        1
 92
        7
 72
     1
 73
     1
 93
        2
 10
50.75637961129612
 20
4.162977887612726
 42
1.0
 10
51.31564083086257
 20
4.162977887612726
 42
1.0
 97
        0
 75
     0
 76
     1
 52
0.0
 41
0.005
 77
     0
 78
     1
 53
45.0
 43
-90.00147234171434
 44
-11.54408334824683
 45
-0.0112253201513365
 46
0.0112253201513365
 79
     0
 47
0.0144059220544325
 98
        1
 10
51.06211603701334
 20
4.299606703893061
  0
HATCH
  5
115D
330
E38
100
AcDbEntity
  8
AM_0
 62
   242
100
AcDbHatch
 10
0.0
 20
0.0
 30
0.0
210
0.0
220
0.0
230
1.0
  2
ANSI31
 70
     0
 71
     0
 91
        1
 92
        7
 72
     1
 73
     1
 93
        2
 10
52.71243028817415
 20
9.602844358144977
 42
1.0
 10
53.2716915077406
 20
9.602844358144977
 42
1.0
 97
        0
 75
     0
 76
     1
 52
0.0
 41
0.005
 77
     0
 78
     1
 53
45.0
 43
-88.04542166483631
 44
-6.104216877714577
 45
-0.0112253201513365
 46
0.0112253201513365
 79
     0
 47
0.0144059220544325
 98
        1
 10
53.01816671389136
 20
9.739473174425313
  0
HATCH
  5
115E
330
E38
100
AcDbEntity
  8
AM_0
 62
   242
100
AcDbHatch
 10
0.0
 20
0.0
 30
0.0
210
0.0
220
0.0
230
1.0
  2
ANSI31
 70
     0
 71
     1
 91
        1
 92
        7
 72
     1
 73
     1
 93
        2
 10
59.84377326457551
 20
15.54555309803942
 42
1.0
 10
59.28451204500905
 20
15.54555309803942
 42
1.0
 97
        1
330
115F
 75
     0
 76
     1
 52
0.0
 41
0.005
 77
     0
 78
     1
 53
45.0
 43
-81.4733399080014
 44
-0.1615081378201353
 45
-0.0112253201513365
 46
0.0112253201513365
 79
     0
 47
0.0144059220544325
 98
        1
 10
59.59024847072626
 20
15.68218191431975
  0
CIRCLE
  5
115F
102
{ACAD_REACTORS
330
115E
102
}
330
E38
100
AcDbEntity
  8
AM_0
 62
   242
100
AcDbCircle
 10
59.56414265479228
 20
15.54555309803942
 30
0.0
 40
0.2796306097832257
  0
MTEXT
  5
1160
102
{ACAD_XDICTIONARY
360
1184
102
}
330
E38
100
AcDbEntity
  8
AM_0
100
AcDbMText
 10
23.60269897498032
 20
28.17564620975296
 30
0.0
 40
5.0
 41
98.12369691971793
 71
     1
 72
     5
  1
{\fFrutiger Linotype|b1|i0|c0|p34;kläusler \C242;acrylstein\C256; ag\fFrutiger Linotype|b0|i0|c0|p34;\P\H0.5x;Bruggacherstrasse 18   8117 Fällanden\PTel 044 825 31 79   Fax 044 825 39 77\Pwww.himacs.ch   info@himacs.ch}
 73
     1
 44
1.0
1001
ACAD
1000
MTEXTBEGIN
1070
    73
1070
     1
1070
    44
1040
1.0
1070
    74
1070
     0
1000
MTEXTEND
  0
LWPOLYLINE
  5
1161
330
E38
100
AcDbEntity
  8
RAHMEN
100
AcDbPolyline
 90
        4
 70
     1
 43
0.0
 10
18.40228531949745
 20
30.78947368421055
 10
97.49999999999998
 20
30.78947368421055
 10
97.49999999999998
 20
0.0000000000000213
 10
18.40228531949745
 20
0.0000000000000213
  0
LINE
  5
1162
330
E38
100
AcDbEntity
  8
RAHMEN
100
AcDbLine
 10
97.49999999999998
 20
30.78947368421055
 30
0.0
 11
97.49999999999998
 21
0.0
 31
0.0
  0
LINE
  5
1163
330
E38
100
AcDbEntity
  8
RAHMEN
100
AcDbLine
 10
105.4022853194974
 20
255.9329567986091
 30
0.0
 11
105.4022853194974
 21
281.0
 31
0.0
  0
ENDBLK
  5
E7C
330
E38
100
AcDbEntity
  8
0
100
AcDbBlockEnd
  0
BLOCK
  5
EE0
330
ED6
100
AcDbEntity
  8
0
100
AcDbBlockBegin
  2
*D11
 70
     1
 10
0.0
 20
0.0
 30
0.0
  3
*D11
  1

  0
LINE
  5
F69
330
ED6
100
AcDbEntity
  8
BEM1-10
 62
   164
100
AcDbLine
 10
3485.013948810465
 20
7833.41655044649
 30
0.0
 11
3485.013948810465
 21
7980.151258461879
 31
0.0
  0
LINE
  5
F6A
330
ED6
100
AcDbEntity
  8
BEM1-10
 62
   164
100
AcDbLine
 10
3320.013948810466
 20
7833.416550446492
 30
0.0
 11
3320.013948810466
 21
7980.151258461879
 31
0.0
  0
LINE
  5
F6B
330
ED6
100
AcDbEntity
  8
BEM1-10
 62
   164
100
AcDbLine
 10
3485.013948810465
 20
7975.151258461879
 30
0.0
 11
3320.013948810466
 21
7975.151258461879
 31
0.0
  0
INSERT
  5
F6C
330
ED6
100
AcDbEntity
  8
BEM1-10
 62
   164
100
AcDbBlockReference
  2
_Oblique
 10
3485.013948810465
 20
7975.151258461879
 30
0.0
 41
10.0
 42
10.0
 43
10.0
  0
INSERT
  5
F6D
330
ED6
100
AcDbEntity
  8
BEM1-10
 62
   164
100
AcDbBlockReference
  2
_Oblique
 10
3320.013948810466
 20
7975.151258461879
 30
0.0
 41
10.0
 42
10.0
 43
10.0
 50
180.0
  0
MTEXT
  5
F6E
330
ED6
100
AcDbEntity
  8
BEM1-10
 62
   164
100
AcDbMText
 10
3402.513948810465
 20
7991.65125846188
 30
0.0
 40
25.0
 41
0.0
 71
     5
 72
     1
  1
\A1;165.0
 73
     1
 44
1.0
1001
ACAD
1000
MTEXTBEGIN
1070
    73
1070
     1
1070
    44
1040
1.0
1070
    74
1070
     0
1000
MTEXTEND
  0
POINT
  5
F6F
330
ED6
100
AcDbEntity
  8
DEFPOINTS
 62
     0
100
AcDbPoint
 10
3485.013948810465
 20
7823.416550446491
 30
0.0
  0
POINT
  5
F70
330
ED6
100
AcDbEntity
  8
DEFPOINTS
 62
     0
100
AcDbPoint
 10
3320.013948810466
 20
7823.416550446492
 30
0.0
  0
POINT
  5
F71
330
ED6
100
AcDbEntity
  8
DEFPOINTS
 62
     0
100
AcDbPoint
 10
3320.013948810466
 20
7975.151258461879
 30
0.0
  0
ENDBLK
  5
EE1
330
ED6
100
AcDbEntity
  8
0
100
AcDbBlockEnd
  0
BLOCK
  5
EEC
330
EE2
100
AcDbEntity
  8
0
100
AcDbBlockBegin
  2
*D12
 70
     1
 10
0.0
 20
0.0
 30
0.0
  3
*D12
  1

  0
LINE
  5
F57
330
EE2
100
AcDbEntity
  8
BEM1-10
 62
   164
100
AcDbLine
 10
3496.31128409232
 20
7846.4509902269
 30
0.0
 11
3496.31128409232
 21
8043.343859259039
 31
0.0
  0
LINE
  5
F58
330
EE2
100
AcDbEntity
  8
BEM1-10
 62
   164
100
AcDbLine
 10
3308.013948810464
 20
7836.416550446492
 30
0.0
 11
3308.013948810464
 21
8043.343859259039
 31
0.0
  0
LINE
  5
F59
330
EE2
100
AcDbEntity
  8
BEM1-10
 62
   164
100
AcDbLine
 10
3496.31128409232
 20
8038.343859259041
 30
0.0
 11
3308.013948810464
 21
8038.343859259041
 31
0.0
  0
INSERT
  5
F5A
330
EE2
100
AcDbEntity
  8
BEM1-10
 62
   164
100
AcDbBlockReference
  2
_Oblique
 10
3496.31128409232
 20
8038.343859259041
 30
0.0
 41
10.0
 42
10.0
 43
10.0
  0
INSERT
  5
F5B
330
EE2
100
AcDbEntity
  8
BEM1-10
 62
   164
100
AcDbBlockReference
  2
_Oblique
 10
3308.013948810464
 20
8038.343859259041
 30
0.0
 41
10.0
 42
10.0
 43
10.0
 50
180.0
  0
MTEXT
  5
F5C
330
EE2
100
AcDbEntity
  8
BEM1-10
 62
   164
100
AcDbMText
 10
3402.162616451393
 20
8054.843859259039
 30
0.0
 40
25.0
 41
0.0
 71
     5
 72
     1
  1
\A1;188.3
 73
     1
 44
1.0
1001
ACAD
1000
MTEXTBEGIN
1070
    73
1070
     1
1070
    44
1040
1.0
1070
    74
1070
     0
1000
MTEXTEND
  0
POINT
  5
F5D
330
EE2
100
AcDbEntity
  8
DEFPOINTS
 62
     0
100
AcDbPoint
 10
3496.31128409232
 20
7836.450990226899
 30
0.0
  0
POINT
  5
F5E
330
EE2
100
AcDbEntity
  8
DEFPOINTS
 62
     0
100
AcDbPoint
 10
3308.013948810464
 20
7826.416550446491
 30
0.0
  0
POINT
  5
F5F
330
EE2
100
AcDbEntity
  8
DEFPOINTS
 62
     0
100
AcDbPoint
 10
3308.013948810464
 20
8038.343859259041
 30
0.0
  0
ENDBLK
  5
EED
330
EE2
100
AcDbEntity
  8
0
100
AcDbBlockEnd
  0
BLOCK
  5
EF8
330
EEE
100
AcDbEntity
  8
0
100
AcDbBlockBegin
  2
*D13
 70
     1
 10
0.0
 20
0.0
 30
0.0
  3
*D13
  1

  0
LINE
  5
F2D
330
EEE
100
AcDbEntity
  8
BEM1-10
 62
   164
100
AcDbLine
 10
3392.513948810464
 20
7886.916550446492
 30
0.0
 11
3217.686200165088
 21
7886.916550446492
 31
0.0
  0
LINE
  5
F2E
330
EEE
100
AcDbEntity
  8
BEM1-10
 62
   164
100
AcDbLine
 10
3392.513948810464
 20
7582.916550446491
 30
0.0
 11
3217.686200165088
 21
7582.916550446491
 31
0.0
  0
LINE
  5
F2F
330
EEE
100
AcDbEntity
  8
BEM1-10
 62
   164
100
AcDbLine
 10
3222.686200165088
 20
7886.916550446492
 30
0.0
 11
3222.686200165088
 21
7582.916550446491
 31
0.0
  0
INSERT
  5
F30
330
EEE
100
AcDbEntity
  8
BEM1-10
 62
   164
100
AcDbBlockReference
  2
_Oblique
 10
3222.686200165088
 20
7886.916550446492
 30
0.0
 41
10.0
 42
10.0
 43
10.0
 50
90.0
  0
INSERT
  5
F31
330
EEE
100
AcDbEntity
  8
BEM1-10
 62
   164
100
AcDbBlockReference
  2
_Oblique
 10
3222.686200165088
 20
7582.916550446491
 30
0.0
 41
10.0
 42
10.0
 43
10.0
 50
270.0
  0
MTEXT
  5
F32
330
EEE
100
AcDbEntity
  8
BEM1-10
 62
   164
100
AcDbMText
 10
3206.186200165087
 20
7734.916550446492
 30
0.0
 40
25.0
 41
0.0
 71
     5
 72
     1
  1
\A1;304.0
 11
0.0000000000000001
 21
1.0
 31
0.0
 73
     1
 44
1.0
1001
ACAD
1000
MTEXTBEGIN
1070
    73
1070
     1
1070
    44
1040
1.0
1070
    74
1070
     0
1000
MTEXTEND
  0
POINT
  5
F33
330
EEE
100
AcDbEntity
  8
DEFPOINTS
 62
     0
100
AcDbPoint
 10
3402.513948810464
 20
7886.916550446492
 30
0.0
  0
POINT
  5
F34
330
EEE
100
AcDbEntity
  8
DEFPOINTS
 62
     0
100
AcDbPoint
 10
3402.513948810464
 20
7582.916550446491
 30
0.0
  0
POINT
  5
F35
330
EEE
100
AcDbEntity
  8
DEFPOINTS
 62
     0
100
AcDbPoint
 10
3222.686200165088
 20
7582.916550446491
 30
0.0
  0
ENDBLK
  5
EF9
330
EEE
100
AcDbEntity
  8
0
100
AcDbBlockEnd
  0
BLOCK
  5
F04
330
EFA
100
AcDbEntity
  8
0
100
AcDbBlockBegin
  2
*D14
 70
     1
 10
0.0
 20
0.0
 30
0.0
  3
*D14
  1

  0
LINE
  5
F36
330
EFA
100
AcDbEntity
  8
BEM1-10
 62
   164
100
AcDbLine
 10
3392.513948810464
 20
7898.91655044649
 30
0.0
 11
3167.649273426622
 21
7898.91655044649
 31
0.0
  0
LINE
  5
F37
330
EFA
100
AcDbEntity
  8
BEM1-10
 62
   164
100
AcDbLine
 10
3392.513948810465
 20
7570.91655044649
 30
0.0
 11
3167.649273426622
 21
7570.91655044649
 31
0.0
  0
LINE
  5
F38
330
EFA
100
AcDbEntity
  8
BEM1-10
 62
   164
100
AcDbLine
 10
3172.649273426622
 20
7898.91655044649
 30
0.0
 11
3172.649273426622
 21
7570.91655044649
 31
0.0
  0
INSERT
  5
F39
330
EFA
100
AcDbEntity
  8
BEM1-10
 62
   164
100
AcDbBlockReference
  2
_Oblique
 10
3172.649273426622
 20
7898.91655044649
 30
0.0
 41
10.0
 42
10.0
 43
10.0
 50
90.0
  0
INSERT
  5
F3A
330
EFA
100
AcDbEntity
  8
BEM1-10
 62
   164
100
AcDbBlockReference
  2
_Oblique
 10
3172.649273426622
 20
7570.91655044649
 30
0.0
 41
10.0
 42
10.0
 43
10.0
 50
270.0
  0
MTEXT
  5
F3B
330
EFA
100
AcDbEntity
  8
BEM1-10
 62
   164
100
AcDbMText
 10
3156.14927342662
 20
7734.916550446492
 30
0.0
 40
25.0
 41
0.0
 71
     5
 72
     1
  1
\A1;328.0
 11
0.0000000000000001
 21
1.0
 31
0.0
 73
     1
 44
1.0
1001
ACAD
1000
MTEXTBEGIN
1070
    73
1070
     1
1070
    44
1040
1.0
1070
    74
1070
     0
1000
MTEXTEND
  0
POINT
  5
F3C
330
EFA
100
AcDbEntity
  8
DEFPOINTS
 62
     0
100
AcDbPoint
 10
3402.513948810464
 20
7898.91655044649
 30
0.0
  0
POINT
  5
F3D
330
EFA
100
AcDbEntity
  8
DEFPOINTS
 62
     0
100
AcDbPoint
 10
3402.513948810465
 20
7570.91655044649
 30
0.0
  0
POINT
  5
F3E
330
EFA
100
AcDbEntity
  8
DEFPOINTS
 62
     0
100
AcDbPoint
 10
3172.649273426622
 20
7570.91655044649
 30
0.0
  0
ENDBLK
  5
F05
330
EFA
100
AcDbEntity
  8
0
100
AcDbBlockEnd
  0
BLOCK
  5
F10
330
F06
100
AcDbEntity
  8
0
100
AcDbBlockBegin
  2
*D15
 70
     1
 10
0.0
 20
0.0
 30
0.0
  3
*D15
  1

  0
LINE
  5
F3F
330
F06
100
AcDbEntity
  8
BEM1-10
 62
   164
100
AcDbLine
 10
3392.513948810464
 20
7886.916550446492
 30
0.0
 11
3273.762064787163
 21
7886.916550446492
 31
0.0
  0
LINE
  5
F40
330
F06
100
AcDbEntity
  8
BEM1-10
 62
   164
100
AcDbLine
 10
3392.513948810465
 20
7799.416550446491
 30
0.0
 11
3273.762064787163
 21
7799.416550446491
 31
0.0
  0
LINE
  5
F41
330
F06
100
AcDbEntity
  8
BEM1-10
 62
   164
100
AcDbLine
 10
3278.762064787164
 20
7886.916550446492
 30
0.0
 11
3278.762064787164
 21
7799.416550446491
 31
0.0
  0
INSERT
  5
F42
330
F06
100
AcDbEntity
  8
BEM1-10
 62
   164
100
AcDbBlockReference
  2
_Oblique
 10
3278.762064787164
 20
7886.916550446492
 30
0.0
 41
10.0
 42
10.0
 43
10.0
 50
90.0
  0
INSERT
  5
F43
330
F06
100
AcDbEntity
  8
BEM1-10
 62
   164
100
AcDbBlockReference
  2
_Oblique
 10
3278.762064787164
 20
7799.416550446491
 30
0.0
 41
10.0
 42
10.0
 43
10.0
 50
270.0
  0
MTEXT
  5
F44
330
F06
100
AcDbEntity
  8
BEM1-10
 62
   164
100
AcDbMText
 10
3262.262064787162
 20
7843.166550446492
 30
0.0
 40
25.0
 41
0.0
 71
     5
 72
     1
  1
\A1;87.5
 11
0.0000000000000001
 21
1.0
 31
0.0
 73
     1
 44
1.0
1001
ACAD
1000
MTEXTBEGIN
1070
    73
1070
     1
1070
    44
1040
1.0
1070
    74
1070
     0
1000
MTEXTEND
  0
POINT
  5
F45
330
F06
100
AcDbEntity
  8
DEFPOINTS
 62
     0
100
AcDbPoint
 10
3402.513948810464
 20
7886.916550446492
 30
0.0
  0
POINT
  5
F46
330
F06
100
AcDbEntity
  8
DEFPOINTS
 62
     0
100
AcDbPoint
 10
3402.513948810465
 20
7799.416550446491
 30
0.0
  0
POINT
  5
F47
330
F06
100
AcDbEntity
  8
DEFPOINTS
 62
     0
100
AcDbPoint
 10
3278.762064787164
 20
7799.416550446491
 30
0.0
  0
ENDBLK
  5
F11
330
F06
100
AcDbEntity
  8
0
100
AcDbBlockEnd
  0
BLOCK
  5
F19
330
F12
100
AcDbEntity
  8
0
100
AcDbBlockBegin
  2
*D16
 70
     1
 10
0.0
 20
0.0
 30
0.0
  3
*D16
  1

  0
LINE
  5
F48
330
F12
100
AcDbEntity
  8
BEM1-10
 62
   164
100
AcDbLine
 10
3322.217536379593
 20
7639.487533691315
 30
0.0
 11
3413.717536379598
 21
7639.487533691315
 31
0.0
  0
LINE
  5
F49
330
F12
100
AcDbEntity
  8
BEM1-10
 62
   164
100
AcDbLine
 10
3413.717536379598
 20
7639.487533691315
 30
0.0
 11
3477.610488152175
 21
7616.95415370102
 31
0.0
  0
MTEXT
  5
F4A
330
F12
100
AcDbEntity
  8
BEM1-10
 62
   164
100
AcDbMText
 10
3365.967536379594
 20
7655.987533691313
 30
0.0
 40
25.0
 41
0.0
 71
     5
 72
     1
  1
\A1;R51.0
 73
     1
 44
1.0
1001
ACAD
1000
MTEXTBEGIN
1070
    73
1070
     1
1070
    44
1040
1.0
1070
    74
1070
     0
1000
MTEXTEND
  0
INSERT
  5
F4B
330
F12
100
AcDbEntity
  8
BEM1-10
 62
   164
100
AcDbBlockReference
  2
_Oblique
 10
3477.610488152175
 20
7616.95415370102
 30
0.0
 41
10.0
 42
10.0
 43
10.0
 50
340.5735810319907
  0
POINT
  5
F4C
330
F12
100
AcDbEntity
  8
DEFPOINTS
 62
     0
100
AcDbPoint
 10
3477.610488152175
 20
7616.95415370102
 30
0.0
  0
POINT
  5
F4D
330
F12
100
AcDbEntity
  8
DEFPOINTS
 62
     0
100
AcDbPoint
 10
3429.513948810462
 20
7633.916550446477
 30
0.0
  0
ENDBLK
  5
F1A
330
F12
100
AcDbEntity
  8
0
100
AcDbBlockEnd
  0
BLOCK
  5
F79
330
F73
100
AcDbEntity
  8
0
100
AcDbBlockBegin
  2
*D17
 70
     1
 10
0.0
 20
0.0
 30
0.0
  3
*D17
  1

  0
LINE
  5
F80
330
F73
100
AcDbEntity
  8
BEM1-10
 62
   164
100
AcDbLine
 10
3362.041104646587
 20
7655.612255784537
 30
0.0
 11
3484.122812081532
 21
7634.857710397742
 31
0.0
  0
MTEXT
  5
F81
330
F73
100
AcDbEntity
  8
BEM1-10
 62
   164
100
AcDbMText
 10
3415.988819127445
 20
7663.177596495268
 30
0.0
 40
25.0
 41
0.0
 71
     5
 72
     1
  1
\A1;R63.0
 11
0.9858549725567693
 21
-0.1676006356941759
 31
0.0
 73
     1
 44
1.0
1001
ACAD
1000
MTEXTBEGIN
1070
    73
1070
     1
1070
    44
1040
1.0
1070
    74
1070
     0
1000
MTEXTEND
  0
INSERT
  5
F82
330
F73
100
AcDbEntity
  8
BEM1-10
 62
   164
100
AcDbBlockReference
  2
_Oblique
 10
3484.122812081532
 20
7634.857710397742
 30
0.0
 41
10.0
 42
10.0
 43
10.0
 50
350.3516558559379
  0
POINT
  5
F83
330
F73
100
AcDbEntity
  8
DEFPOINTS
 62
     0
100
AcDbPoint
 10
3484.122812081532
 20
7634.857710397742
 30
0.0
  0
POINT
  5
F84
330
F73
100
AcDbEntity
  8
DEFPOINTS
 62
     0
100
AcDbPoint
 10
3422.01394881045
 20
7645.416550446475
 30
0.0
  0
ENDBLK
  5
F7A
330
F73
100
AcDbEntity
  8
0
100
AcDbBlockEnd
  0
BLOCK
  5
FBA
330
FB0
100
AcDbEntity
  8
0
100
AcDbBlockBegin
  2
*D18
 70
     1
 10
0.0
 20
0.0
 30
0.0
  3
*D18
  1

  0
LINE
  5
FB1
330
FB0
100
AcDbEntity
  8
BEM1-10
 62
   164
100
AcDbLine
 10
3874.668482960176
 20
8170.855595141123
 30
0.0
 11
4208.739917603199
 21
8170.855595141123
 31
0.0
  0
LINE
  5
FB2
330
FB0
100
AcDbEntity
  8
BEM1-10
 62
   164
100
AcDbLine
 10
3874.668482960176
 20
7785.855595141123
 30
0.0
 11
4208.739917603199
 21
7785.855595141123
 31
0.0
  0
LINE
  5
FB3
330
FB0
100
AcDbEntity
  8
BEM1-10
 62
   164
100
AcDbLine
 10
4203.7399176032
 20
8170.855595141123
 30
0.0
 11
4203.7399176032
 21
7785.855595141123
 31
0.0
  0
INSERT
  5
FB4
330
FB0
100
AcDbEntity
  8
BEM1-10
 62
   164
100
AcDbBlockReference
  2
_Oblique
 10
4203.7399176032
 20
8170.855595141123
 30
0.0
 41
10.0
 42
10.0
 43
10.0
 50
90.0
  0
INSERT
  5
FB5
330
FB0
100
AcDbEntity
  8
BEM1-10
 62
   164
100
AcDbBlockReference
  2
_Oblique
 10
4203.7399176032
 20
7785.855595141123
 30
0.0
 41
10.0
 42
10.0
 43
10.0
 50
270.0
  0
MTEXT
  5
FB6
330
FB0
100
AcDbEntity
  8
BEM1-10
 62
   164
100
AcDbMText
 10
4187.239917603198
 20
7978.355595141123
 30
0.0
 40
25.0
 41
0.0
 71
     5
 72
     1
  1
\A1;385.0
 11
0.0000000000000001
 21
1.0
 31
0.0
 73
     1
 44
1.0
1001
ACAD
1000
MTEXTBEGIN
1070
    73
1070
     1
1070
    44
1040
1.0
1070
    74
1070
     0
1000
MTEXTEND
  0
POINT
  5
FB7
330
FB0
100
AcDbEntity
  8
DEFPOINTS
 62
     0
100
AcDbPoint
 10
3864.668482960175
 20
8170.855595141123
 30
0.0
  0
POINT
  5
FB8
330
FB0
100
AcDbEntity
  8
DEFPOINTS
 62
     0
100
AcDbPoint
 10
3864.668482960175
 20
7785.855595141123
 30
0.0
  0
POINT
  5
FB9
330
FB0
100
AcDbEntity
  8
DEFPOINTS
 62
     0
100
AcDbPoint
 10
4203.7399176032
 20
7785.855595141123
 30
0.0
  0
ENDBLK
  5
FBB
330
FB0
100
AcDbEntity
  8
0
100
AcDbBlockEnd
  0
BLOCK
  5
1107
330
10FD
100
AcDbEntity
  8
0
100
AcDbBlockBegin
  2
*D19
 70
     1
 10
0.0
 20
0.0
 30
0.0
  3
*D19
  1

  0
LINE
  5
10FE
330
10FD
100
AcDbEntity
  8
BEM1-10
 62
   164
100
AcDbLine
 10
4467.570825149179
 20
8190.281527856633
 30
0.0
 11
4509.790669425417
 21
8190.281527856633
 31
0.0
  0
LINE
  5
10FF
330
10FD
100
AcDbEntity
  8
BEM1-10
 62
   164
100
AcDbLine
 10
4467.570825149056
 20
7861.281527856634
 30
0.0
 11
4509.790669425417
 21
7861.281527856634
 31
0.0
  0
LINE
  5
1100
330
10FD
100
AcDbEntity
  8
BEM1-10
 62
   164
100
AcDbLine
 10
4504.790669425417
 20
8190.281527856633
 30
0.0
 11
4504.790669425417
 21
7861.281527856634
 31
0.0
  0
INSERT
  5
1101
330
10FD
100
AcDbEntity
  8
BEM1-10
 62
   164
100
AcDbBlockReference
  2
_Oblique
 10
4504.790669425417
 20
8190.281527856633
 30
0.0
 41
10.0
 42
10.0
 43
10.0
 50
90.0
  0
INSERT
  5
1102
330
10FD
100
AcDbEntity
  8
BEM1-10
 62
   164
100
AcDbBlockReference
  2
_Oblique
 10
4504.790669425417
 20
7861.281527856634
 30
0.0
 41
10.0
 42
10.0
 43
10.0
 50
270.0
  0
MTEXT
  5
1103
330
10FD
100
AcDbEntity
  8
BEM1-10
 62
   164
100
AcDbMText
 10
4488.290669425416
 20
8025.781527856635
 30
0.0
 40
25.0
 41
0.0
 71
     5
 72
     1
  1
\A1;329.0
 11
0.0000000000000001
 21
1.0
 31
0.0
 73
     1
 44
1.0
1001
ACAD
1000
MTEXTBEGIN
1070
    73
1070
     1
1070
    44
1040
1.0
1070
    74
1070
     0
1000
MTEXTEND
  0
POINT
  5
1104
330
10FD
100
AcDbEntity
  8
DEFPOINTS
 62
     0
100
AcDbPoint
 10
4457.570825149178
 20
8190.281527856633
 30
0.0
  0
POINT
  5
1105
330
10FD
100
AcDbEntity
  8
DEFPOINTS
 62
     0
100
AcDbPoint
 10
4457.570825149057
 20
7861.281527856634
 30
0.0
  0
POINT
  5
1106
330
10FD
100
AcDbEntity
  8
DEFPOINTS
 62
     0
100
AcDbPoint
 10
4504.790669425417
 20
7861.281527856634
 30
0.0
  0
ENDBLK
  5
1108
330
10FD
100
AcDbEntity
  8
0
100
AcDbBlockEnd
  0
BLOCK
  5
D41
330
D3F
100
AcDbEntity
  8
0
100
AcDbBlockBegin
  2
*Paper_Space20
 70
     0
 10
0.0
 20
0.0
 30
0.0
  3
*Paper_Space20
  1

  0
VIEWPORT
  5
D46
102
{ACAD_XDICTIONARY
360
1178
102
}
330
D3F
100
AcDbEntity
  8
0
100
AcDbViewport
 10
193.5262742907681
 20
98.26624727249146
 30
0.0
 40
429.3667056128169
 41
222.1517806396485
 69
     1
 12
193.5262742907681
 22
98.26624727249146
 13
0.0
 23
0.0
 14
10.0
 24
10.0
 15
10.0
 25
10.0
 16
0.0
 26
0.0
 36
1.0
 17
0.0
 27
0.0
 37
0.0
 42
50.0
 43
0.0
 44
0.0
 45
222.1517806396485
 50
0.0
 51
0.0
 72
   100
 90
    32800
  1

281
     0
 71
     1
 74
     0
110
0.0
120
0.0
130
0.0
111
1.0
121
0.0
131
0.0
112
0.0
122
1.0
132
0.0
 79
     0
146
0.0
  0
ENDBLK
  5
D42
330
D3F
100
AcDbEntity
  8
0
100
AcDbBlockEnd
  0
ENDSEC
  0
SECTION
  2
ENTITIES
  0
LINE
  5
10F3
330
19
100
AcDbEntity
  8
UK_AUSSCHNITT
  6
Continuous
 62
     7
100
AcDbLine
 10
4506.024754391652
 20
8220.533214070481
 30
0.0
 11
4506.024754391652
 21
8192.846019730522
 31
0.0
  0
LINE
  5
10F4
330
19
100
AcDbEntity
  8
FALZ_FUER_LAVANTO
  6
Continuous
 62
     5
100
AcDbLine
 10
4501.024754391653
 20
8192.846019730522
 30
0.0
 11
4501.024754391653
 21
8216.139567651529
 31
0.0
  0
LINE
  5
10F5
330
19
100
AcDbEntity
  8
UK_AUSSCHNITT
  6
Continuous
 62
     7
100
AcDbLine
 10
4406.375861666036
 20
8210.057749864429
 30
0.0
 11
4406.375861666036
 21
8220.10875815153
 31
0.0
  0
LINE
  5
10F6
330
19
100
AcDbEntity
  8
FALZ_FUER_LAVANTO
  6
Continuous
 62
     5
100
AcDbLine
 10
4411.375861666036
 20
8205.717409037923
 30
0.0
 11
4411.375861666036
 21
8215.752946487457
 31
0.0
  0
ARC
  5
10F7
330
19
100
AcDbEntity
  8
UK_AUSSCHNITT
  6
Continuous
 62
     7
100
AcDbCircle
 10
4457.713709713749
 20
7865.021895163991
 30
0.0
 40
358.7788384346317
100
AcDbArc
 50
82.26138085209111
 51
98.226720621006
  0
ARC
  5
10F8
330
19
100
AcDbEntity
  8
FALZ_FUER_LAVANTO
  6
Continuous
 62
     5
100
AcDbCircle
 10
4457.71370971375
 20
7865.021895163991
 30
0.0
 40
353.778838434631
100
AcDbArc
 50
82.96797681680084
 51
97.52620940167416
  0
LWPOLYLINE
  5
10F9
330
19
100
AcDbEntity
  8
CORIAN_BECKENAUSSCHNITT
  6
Continuous
 62
     1
100
AcDbPolyline
 90
       16
 70
     1
 43
0.0
 10
4221.070825149181
 20
8025.781527856635
 42
0.1350908985487251
 10
4237.465076892427
 20
7966.210290323314
 42
0.1068903967210046
 10
4290.340071398563
 20
7909.462462351448
 42
0.0819895910197567
 10
4363.762463263343
 20
7874.525749891896
 42
0.0702435935743624
 10
4457.570825149182
 20
7861.281527856634
 42
0.0702435935743625
 10
4551.379187035019
 20
7874.525749891896
 42
0.0819895910197571
 10
4624.801578899798
 20
7909.462462351448
 42
0.1068903967210047
 10
4677.676573405934
 20
7966.210290323314
 42
0.1350908985487236
 10
4694.07082514918
 20
8025.781527856635
 42
0.1350908985487238
 10
4677.676573405934
 20
8085.352765389956
 42
0.1068903967210055
 10
4624.8015788998
 20
8142.100593361822
 42
0.0819895910197569
 10
4551.37918703502
 20
8177.037305821373
 42
0.0702435935743623
 10
4457.570825149182
 20
8190.281527856633
 42
0.0702435935743625
 10
4363.762463263343
 20
8177.037305821373
 42
0.0819895910197572
 10
4290.340071398563
 20
8142.100593361822
 42
0.1068903967210053
 10
4237.465076892427
 20
8085.352765389956
 42
0.1350908985487263
  0
LWPOLYLINE
  5
10FA
330
19
100
AcDbEntity
  8
UK_AUSSCHNITT
  6
Continuous
 62
     7
100
AcDbPolyline
 90
       17
 70
     0
 43
0.0
 10
4406.375861666036
 20
8210.057749864429
 42
0.0771886935466463
 10
4309.461097600418
 20
8180.081476701401
 42
0.0939586302776777
 10
4242.495237975123
 20
8130.075433739113
 42
0.1193097817990354
 10
4204.036419179153
 20
8060.427333894152
 42
0.1339418830117012
 10
4203.984814977385
 20
7989.298919242132
 42
0.1193790879592481
 10
4239.282523287942
 20
7925.176501475958
 42
0.0940212118888691
 10
4313.2927911106
 20
7869.788565279261
 42
0.0772191666919627
 10
4404.282235049229
 20
7841.558372316036
 42
0.0717686862604333
 10
4506.702204885807
 20
7841.208424652133
 42
0.0769641777663986
 10
4603.911291952207
 20
7870.587821375692
 42
0.0934942962083063
 10
4671.472334124604
 20
7920.218212270019
 42
0.1187904035404488
 10
4710.735975267148
 20
7989.708459354452
 42
0.1339335228324075
 10
4711.556647268803
 20
8060.762152763285
 42
0.1198936036895052
 10
4676.960512195956
 20
8125.098466282391
 42
0.0944905378396722
 10
4603.589505988341
 20
8180.915457468721
 42
0.0774493001619999
 10
4512.987885328143
 20
8209.671550419074
 42
0.0717735010183891
 10
4410.506282672295
 20
8210.639289702008
 42
0.0767446014336431
  0
LWPOLYLINE
  5
10FB
330
19
100
AcDbEntity
  8
FALZ_FUER_LAVANTO
  6
Continuous
 62
     5
100
AcDbPolyline
 90
       17
 70
     0
 43
0.0
 10
4411.375861666036
 20
8205.717409037923
 42
0.0763810197386424
 10
4315.576278364454
 20
8177.601984113065
 42
0.0929895828486075
 10
4248.80689456389
 20
8129.593404434499
 42
0.1189340850788578
 10
4209.601026572081
 20
8061.939842526555
 42
0.1350461560380288
 10
4208.218812436059
 20
7992.812060508569
 42
0.1208942522073364
 10
4241.621951575281
 20
7930.051121049856
 42
0.0947377204417447
 10
4313.327255065156
 20
7875.294795358001
 42
0.0772234167684225
 10
4402.026247307879
 20
7846.968606344377
 42
0.0713433324877347
 10
4502.717298837586
 20
7845.70701474823
 42
0.0762678887118578
 10
4598.659214807507
 20
7873.519797379877
 42
0.0927485515786097
 10
4665.728232011065
 20
7921.336875944206
 42
0.1186537892439291
 10
4705.342308858575
 20
7988.907213569341
 42
0.1350295968629836
 10
4707.112672371421
 20
8057.993807455408
 42
0.1211652501866853
 10
4674.06591132576
 20
8120.859976790972
 42
0.0949887084998401
 10
4602.689667561747
 20
8175.829085429617
 42
0.0773474579185085
 10
4514.1919022675
 20
8204.418052168454
 42
0.0713488769300916
 10
4413.473639482662
 20
8205.991489025221
 42
0.0761560943909048
  0
CIRCLE
  5
110A
330
19
100
AcDbEntity
  8
ACRYLSTEIN
100
AcDbCircle
 10
4457.570825149184
 20
8053.781527856633
 30
0.0
 40
35.0
  0
CIRCLE
  5
110B
330
19
100
AcDbEntity
  8
ACRYLSTEIN
100
AcDbCircle
 10
4457.570825149184
 20
8053.781527856633
 30
0.0
 40
22.5
  0
TEXT
  5
110C
330
19
100
AcDbEntity
  8
BEM1-10
100
AcDbText
 10
4348.550332420355
 20
7895.166800145138
 30
0.0
 40
25.0
  1
Kontur CNC
  7
LOGO
100
AcDbText
  0
TEXT
  5
110D
330
19
100
AcDbEntity
  8
BEM1-10
100
AcDbText
 10
4348.550332420355
 20
7936.172521740255
 30
0.0
 40
25.0
  1
DecoBowl 478
  7
LOGO
100
AcDbText
  0
VIEWPORT
  5
1134
102
{ACAD_XDICTIONARY
360
1180
102
}
330
112D
100
AcDbEntity
 67
     1
  8
0
100
AcDbViewport
 10
101.7693283557892
 20
145.3515045642852
 30
0.0
 40
607.4327311782651
 41
314.2820835571289
 68
     1
 69
     1
 12
101.7693283557892
 22
145.3515045642852
 13
0.0
 23
0.0
 14
10.0
 24
10.0
 15
10.0
 25
10.0
 16
0.0
 26
0.0
 36
1.0
 17
0.0
 27
0.0
 37
0.0
 42
50.0
 43
0.0
 44
0.0
 45
314.2820835571289
 50
0.0
 51
0.0
 72
   100
 90
    32800
  1

281
     0
 71
     1
 74
     0
110
0.0
120
0.0
130
0.0
111
1.0
121
0.0
131
0.0
112
0.0
122
1.0
132
0.0
 79
     0
146
0.0
  0
VIEWPORT
  5
1136
102
{ACAD_XDICTIONARY
360
1182
102
}
330
112D
100
AcDbEntity
 67
     1
  8
BEM1-10
100
AcDbViewport
 10
101.7693268060684
 20
145.351510643959
 30
0.0
 40
203.5386536121368
 41
290.7030212879181
 68
     2
 69
     2
 12
4456.84022227401
 22
7996.881224702943
 13
0.0
 23
0.0
 14
10.0
 24
10.0
 15
10.0
 25
10.0
 16
0.0
 26
0.0
 36
1.0
 17
0.0
 27
0.0
 37
0.0
 42
50.0
 43
0.0
 44
0.0
 45
937.2128205565344
 50
0.0
 51
0.0
 72
   100
 90
    32768
  1

281
     0
 71
     1
 74
     0
110
0.0
120
0.0
130
0.0
111
1.0
121
0.0
131
0.0
112
0.0
122
1.0
132
0.0
 79
     0
146
0.0
  0
INSERT
  5
1164
330
112D
100
AcDbEntity
 67
     1
  8
BEM1-10
100
AcDbBlockReference
 66
     1
  2
A4_H.dwg
 10
0.0
 20
0.0
 30
0.0
  0
ATTRIB
  5
1166
330
1164
100
AcDbEntity
 67
     1
  8
RAHMEN
100
AcDbText
 10
139.9012711605863
 20
6.916792940921226
 30
0.0
 40
1.476068289234091
  1
02.12.2011
100
AcDbAttribute
  2
REVDATE
 70
     0
  0
ATTRIB
  5
1167
330
1164
100
AcDbEntity
 67
     1
  8
RAHMEN
100
AcDbText
 10
167.7292969851413
 20
7.151134982195202
 30
0.0
 40
1.476068289234091
  1
ygl
100
AcDbAttribute
  2
USER
 70
     0
  0
ATTRIB
  5
1168
330
1164
100
AcDbEntity
 67
     1
  8
RAHMEN
100
AcDbText
 10
97.92542717154001
 20
7.498682143825192
 30
0.0
 40
1.476068289234091
  1
dbl478.dxf
100
AcDbAttribute
  2
FNAME
 70
     0
  0
ATTRIB
  5
1169
330
1164
100
AcDbEntity
 67
     1
  8
RAHMEN
100
AcDbText
 10
98.11763385388472
 20
1.254680691921578
 30
0.0
 40
1.598969081811834
  1
-
100
AcDbAttribute
  2
TEXT4
 70
     0
  0
ATTRIB
  5
116A
330
1164
100
AcDbEntity
 67
     1
  8
RAHMEN
100
AcDbText
 10
139.9365136052734
 20
0.8237646204792099
 30
0.0
 40
1.598969081811834
  1
-
100
AcDbAttribute
  2
TEXT5
 70
     0
  0
ATTRIB
  5
116B
330
1164
100
AcDbEntity
 67
     1
  8
RAHMEN
100
AcDbText
 10
167.5262671450728
 20
0.5667526156229315
 30
0.0
 40
1.598969081811834
  1
-
100
AcDbAttribute
  2
TEXT6
 70
     0
  0
ATTRIB
  5
116C
330
1164
100
AcDbEntity
 67
     1
  8
RAHMEN
100
AcDbText
 10
97.8287739780711
 20
13.29614296459522
 30
0.0
 40
1.598969081811834
  1
-
100
AcDbAttribute
  2
TEXT3
 70
     0
  0
ATTRIB
  5
116D
330
1164
100
AcDbEntity
 67
     1
  8
RAHMEN
100
AcDbText
 10
97.8287739780711
 20
19.33519746077308
 30
0.0
 40
1.598969081811834
  1
-
100
AcDbAttribute
  2
TEXT2
 70
     0
  0
ATTRIB
  5
116E
330
1164
100
AcDbEntity
 67
     1
  8
RAHMEN
100
AcDbText
 10
97.98573821572844
 20
25.4533906928485
 30
0.0
 40
1.598969081811834
  1
-
100
AcDbAttribute
  2
TEXT1
 70
     0
  0
SEQEND
  5
1165
330
1164
100
AcDbEntity
 67
     1
  8
BEM1-10
  0
ENDSEC
  0
SECTION
  2
OBJECTS
  0
DICTIONARY
  5
C
330
0
100
AcDbDictionary
281
     1
  3
ACAD_COLOR
350
CD3
  3
ACAD_GROUP
350
D
  3
ACAD_LAYOUT
350
CD4
  3
ACAD_MATERIAL
350
CD2
  3
ACAD_MLINESTYLE
350
E
  3
ACAD_PLOTSETTINGS
350
CD5
  3
ACAD_PLOTSTYLENAME
350
CD0
  3
ACDBHEADERROUNDTRIPXREC
350
1171
  3
AcDbVariableDictionary
350
E8A
  0
DICTIONARY
  5
E7A
330
E38
100
AcDbDictionary
280
     1
281
     1
  0
DICTIONARY
  5
1184
330
1160
100
AcDbDictionary
280
     1
281
     1
  3
ACAD_MTEXT_RT
360
1185
  0
DICTIONARY
  5
1178
330
D46
100
AcDbDictionary
280
     1
281
     1
  3
ACAD_XREC_ROUNDTRIP
360
1179
  0
DICTIONARY
  5
1180
330
1134
100
AcDbDictionary
280
     1
281
     1
  3
ACAD_XREC_ROUNDTRIP
360
1181
  0
DICTIONARY
  5
1182
330
1136
100
AcDbDictionary
280
     1
281
     1
  3
ACAD_XREC_ROUNDTRIP
360
1183
  0
DICTIONARY
  5
CD3
102
{ACAD_REACTORS
330
C
102
}
330
C
100
AcDbDictionary
281
     1
  0
DICTIONARY
  5
D
102
{ACAD_REACTORS
330
C
102
}
330
C
100
AcDbDictionary
281
     1
  0
DICTIONARY
  5
CD4
102
{ACAD_REACTORS
330
C
102
}
330
C
100
AcDbDictionary
281
     1
  3
A4
350
112E
  3
Layout1
350
D40
  3
Model
350
CD6
  0
DICTIONARY
  5
CD2
102
{ACAD_REACTORS
330
C
102
}
330
C
100
AcDbDictionary
281
     1
  0
DICTIONARY
  5
E
102
{ACAD_REACTORS
330
C
102
}
330
C
100
AcDbDictionary
281
     1
  3
STANDARD
350
1C
  0
DICTIONARY
  5
CD5
102
{ACAD_REACTORS
330
C
102
}
330
C
100
AcDbDictionary
281
     1
  0
ACDBDICTIONARYWDFLT
  5
CD0
102
{ACAD_REACTORS
330
C
102
}
330
C
100
AcDbDictionary
281
     1
  3
Normal
350
CD1
100
AcDbDictionaryWithDefault
340
CD1
  0
DICTIONARY
  5
1171
102
{ACAD_REACTORS
330
C
102
}
330
C
100
AcDbDictionary
281
     1
  3
COLORDICT
350
1173
  3
MATERIALDICT
350
1172
  0
DICTIONARY
  5
E8A
102
{ACAD_REACTORS
330
C
102
}
330
C
100
AcDbDictionary
281
     1
  3
DIMASSOC
350
E8B
  3
PROJECTNAME
350
E8C
  0
XRECORD
  5
1185
102
{ACAD_REACTORS
330
1184
102
}
330
1184
100
AcDbXrecord
280
     1
 40
1897382.0
  1
{\fFrutiger Linotype|b1|i0|c0|p34;kläusler \C242;acrylstein\C256; ag\fFrutiger Linotype|b0|i0|c0|p34;\P\H0.5x;Bruggacherstrasse 18   8117 Fällanden^JTel 044 825 31 79   Fax 044 825 39 77\Pwww.himacs.ch   info@himacs.ch}
  0
XRECORD
  5
1179
102
{ACAD_REACTORS
330
1178
102
}
330
1178
100
AcDbXrecord
280
     1
102
SHADEPLOT
 70
     0
  0
XRECORD
  5
1181
102
{ACAD_REACTORS
330
1180
102
}
330
1180
100
AcDbXrecord
280
     1
102
SHADEPLOT
 70
     0
  0
XRECORD
  5
1183
102
{ACAD_REACTORS
330
1182
102
}
330
1182
100
AcDbXrecord
280
     1
102
SHADEPLOT
 70
     0
  0
LAYOUT
  5
112E
102
{ACAD_XDICTIONARY
360
117E
102
}
102
{ACAD_REACTORS
330
CD4
102
}
330
CD4
100
AcDbPlotSettings
  1

  2
FreePDF XP
  4
A4
  6

 40
3.174999952316284
 41
3.174999952316284
 42
3.175003051757812
 43
3.17498779296875
 44
209.8886566162109
 45
297.0530090332031
 46
0.0
 47
0.0
 48
0.0
 49
0.0
140
0.0
141
0.0
142
1.0
143
1.0
 70
   688
 72
     1
 73
     0
 74
     5
  7

 75
    16
147
1.0
148
0.0
149
0.0
100
AcDbLayout
  1
A4
 70
     1
 71
     2
 10
-3.174999952316284
 20
-3.174999952316284
 11
206.7136566638946
 21
293.8780090808868
 12
0.0
 22
0.0
 32
0.0
 14
0.0
 24
0.0
 34
0.0
 15
203.5386536121368
 25
290.7030212879181
 35
0.0
146
0.0
 13
0.0
 23
0.0
 33
0.0
 16
1.0
 26
0.0
 36
0.0
 17
0.0
 27
1.0
 37
0.0
 76
     0
330
112D
331
1134
  0
LAYOUT
  5
D40
102
{ACAD_XDICTIONARY
360
1176
102
}
102
{ACAD_REACTORS
330
CD4
102
}
330
CD4
100
AcDbPlotSettings
  1

  2
Brother HL-1850/1870N series
  4
A4
  6

 40
6.720416545867919
 41
5.027085304260253
 42
6.889755249023437
 43
5.027069091796875
 44
209.9733276367186
 45
296.9259948730469
 46
0.0
 47
0.0
 48
0.0
 49
0.0
140
0.0
141
0.0
142
1.0
143
1.0
 70
   688
 72
     1
 73
     1
 74
     5
  7

 75
    16
147
1.0
148
0.0
149
0.0
100
AcDbLayout
  1
Layout1
 70
     1
 71
     1
 10
-5.027069091796875
 20
-6.720416545867919
 11
291.89892578125
 21
203.2529110908508
 12
0.0
 22
0.0
 32
0.0
 14
1.000000000000000E+20
 24
1.000000000000000E+20
 34
1.000000000000000E+20
 15
-1.000000000000000E+20
 25
-1.000000000000000E+20
 35
-1.000000000000000E+20
146
0.0
 13
0.0
 23
0.0
 33
0.0
 16
1.0
 26
0.0
 36
0.0
 17
0.0
 27
1.0
 37
0.0
 76
     0
330
D3F
331
D46
  0
LAYOUT
  5
CD6
102
{ACAD_XDICTIONARY
360
1174
102
}
102
{ACAD_REACTORS
330
CD4
102
}
330
CD4
100
AcDbPlotSettings
  1

  2
Brother HL-1850/1870N series
  4

  6

 40
0.0
 41
0.0
 42
0.0
 43
0.0
 44
0.0
 45
0.0
 46
0.0
 47
0.0
 48
0.0
 49
0.0
140
0.0
141
0.0
142
1.0
143
1.0
 70
  1712
 72
     0
 73
     0
 74
     0
  7

 75
     0
147
1.0
148
0.0
149
0.0
100
AcDbLayout
  1
Model
 70
     1
 71
     0
 10
0.0
 20
0.0
 11
12.0
 21
9.0
 12
0.0
 22
0.0
 32
0.0
 14
0.0
 24
0.0
 34
0.0
 15
0.0
 25
0.0
 35
0.0
146
0.0
 13
0.0
 23
0.0
 33
0.0
 16
1.0
 26
0.0
 36
0.0
 17
0.0
 27
1.0
 37
0.0
 76
     0
330
19
  0
MLINESTYLE
  5
1C
102
{ACAD_REACTORS
330
E
102
}
330
E
100
AcDbMlineStyle
  2
STANDARD
 70
     0
  3

 62
     0
 51
90.0
 52
90.0
 71
     2
 49
0.5
 62
   256
  6
BYLAYER
 49
-0.5
 62
   256
  6
BYLAYER
  0
ACDBPLACEHOLDER
  5
CD1
102
{ACAD_REACTORS
330
CD0
102
}
330
CD0
  0
XRECORD
  5
1173
102
{ACAD_REACTORS
330
1171
102
}
330
1171
100
AcDbXrecord
280
     1
340
CD3
  0
XRECORD
  5
1172
102
{ACAD_REACTORS
330
1171
102
}
330
1171
100
AcDbXrecord
280
     1
340
CD2
  0
DICTIONARYVAR
  5
E8B
102
{ACAD_REACTORS
330
E8A
102
}
330
E8A
100
DictionaryVariables
280
     0
  1
1
  0
DICTIONARYVAR
  5
E8C
102
{ACAD_REACTORS
330
E8A
102
}
330
E8A
100
DictionaryVariables
280
     0
  1

  0
DICTIONARY
  5
117E
330
112E
100
AcDbDictionary
280
     1
281
     1
  3
ACAD_XREC_ROUNDTRIP
360
117F
  0
DICTIONARY
  5
1176
330
D40
100
AcDbDictionary
280
     1
281
     1
  3
ACAD_XREC_ROUNDTRIP
360
1177
  0
DICTIONARY
  5
1174
330
CD6
100
AcDbDictionary
280
     1
281
     1
  3
ACAD_XREC_ROUNDTRIP
360
1175
  0
XRECORD
  5
117F
102
{ACAD_REACTORS
330
117E
102
}
330
117E
100
AcDbXrecord
280
     1
102
SHADEPLOT
 70
     0
102
SHADEPLOTRESLEVEL
 70
     2
102
SHADEPLOTCUSTOMDPI
 70
   300
  0
XRECORD
  5
1177
102
{ACAD_REACTORS
330
1176
102
}
330
1176
100
AcDbXrecord
280
     1
102
SHADEPLOT
 70
     1
102
SHADEPLOTRESLEVEL
 70
     2
102
SHADEPLOTCUSTOMDPI
 70
   300
  0
XRECORD
  5
1175
102
{ACAD_REACTORS
330
1174
102
}
330
1174
100
AcDbXrecord
280
     1
102
SHADEPLOT
 70
     0
102
SHADEPLOTRESLEVEL
 70
     2
102
SHADEPLOTCUSTOMDPI
 70
   300
  0
ENDSEC
  0
EOF
